  0
SECTION
  2
HEADER
  9
$ACADVER
  1
AC1006
  0
ENDSEC
  0
SECTION
  2
TABLES
  0
TABLE
  2
LTYPE
 70
16
  0
LTYPE
  2
CONTINUOUS
 70
64
  3
GS Solid
 72
65
 73
0
 40
0.095951951656843
  0
LTYPE
  2
GSDASHED
 70
64
  3
GS Internal Dash
 72
65
 73
2
 40
144.0238794368
 49
96.047903608417
 49
-48.071927780037
  0
LTYPE
  2
GSDOTTED
 70
64
  3
GS Internal Dot
 72
65
 73
2
 40
48.071927780037
 49
0.095951951656843
 49
-48.071927780037
  0
LTYPE
  2
GSDASHDOT
 70
64
  3
GS Internal Dash-Dot
 72
65
 73
4
 40
191.99985526518
 49
96.047903608417
 49
-48.071927780037
 49
0.095951951656843
 49
-48.071927780037
  0
LTYPE
  2
GSDASHDOTDOT
 70
64
  3
GS Internal Dash-Dot-Dot
 72
65
 73
6
 40
191.99985526518
 49
48.071927780037
 49
-48.071927780037
 49
0.095951951656843
 49
-48.071927780037
 49
0.095951951656843
 49
-48.071927780037
  0
LTYPE
  2
GSCUSTOM0
 70
64
  3
GSCUSTOM0
 72
65
 73
2
 40
38.476732614361
 49
19.286342283009
 49
-19.286342283009
  0
LTYPE
  2
GSCUSTOM1
 70
64
  3
GSCUSTOM1
 72
65
 73
2
 40
76.857513277065
 49
38.476732614361
 49
-38.476732614361
  0
LTYPE
  2
GSCUSTOM2
 70
64
  3
GSCUSTOM2
 72
65
 73
2
 40
115.23829393977
 49
57.667122945713
 49
-57.667122945713
  0
LTYPE
  2
GSCUSTOM3
 70
64
  3
GSCUSTOM3
 72
65
 73
2
 40
153.61907460247
 49
76.857513277065
 49
-76.857513277065
  0
LTYPE
  2
GSCUSTOM4
 70
64
  3
GSCUSTOM4
 72
65
 73
2
 40
191.99985526518
 49
96.047903608417
 49
-96.047903608417
  0
LTYPE
  2
GSCUSTOM5
 70
64
  3
GSCUSTOM5
 72
65
 73
4
 40
120.99541103918
 49
38.476732614361
 49
-38.476732614361
 49
5.8530690510624
 49
-38.476732614361
  0
LTYPE
  2
GSCUSTOM6
 70
64
  3
GSCUSTOM6
 72
65
 73
6
 40
201.59505043085
 49
67.262318111389
 49
-38.476732614361
 49
9.691147117333
 49
-38.476732614361
 49
9.691147117333
 49
-38.476732614361
  0
LTYPE
  2
GSCUSTOM7
 70
64
  3
GSCUSTOM7
 72
65
 73
8
 40
211.19024559653
 49
67.262318111389
 49
-28.881537448685
 49
9.691147117333
 49
-28.881537448685
 49
9.691147117333
 49
-28.881537448685
 49
9.691147117333
 49
-28.881537448685
  0
LTYPE
  2
GSCUSTOM8
 70
64
  3
GSCUSTOM8
 72
65
 73
6
 40
168.97138686756
 49
38.476732614361
 49
-28.881537448685
 49
38.476732614361
 49
-28.881537448685
 49
5.8530690510624
 49
-28.881537448685
  0
LTYPE
  2
GSCUSTOM9
 70
64
  3
GSCUSTOM9
 72
65
 73
8
 40
203.51408946399
 49
38.476732614361
 49
-28.881537448685
 49
38.476732614361
 49
-28.881537448685
 49
5.8530690510624
 49
-28.881537448685
 49
5.8530690510624
 49
-28.881537448685
  0
LTYPE
  2
GSCUSTOM10
 70
64
  3
GSCUSTOM10
 72
65
 73
10
 40
441.47492957276
 49
96.047903608417
 49
-38.476732614361
 49
96.047903608417
 49
-38.476732614361
 49
19.286342283009
 49
-38.476732614361
 49
19.286342283009
 49
-38.476732614361
 49
19.286342283009
 49
-38.476732614361
  0
ENDTAB
  0
ENDSEC
  0
SECTION
  2
ENTITIES
  0
POLYLINE
  8
GSLAYER
 70
129
 66
1
  0
VERTEX
  8
GSLAYER
 10
3536.6274570732
 20
3708.6911910453
  0
VERTEX
  8
GSLAYER
 10
3536.6274570732
 20
3758.0067626654
  0
VERTEX
  8
GSLAYER
 10
3576.5606685174
 20
3758.0067626654
  0
VERTEX
  8
GSLAYER
 10
3576.5606685174
 20
3708.6911910453
  0
VERTEX
  8
GSLAYER
 10
3536.6274570732
 20
3708.6911910453
  0
SEQEND
  0
POLYLINE
  8
GSLAYER
 70
129
 66
1
  0
VERTEX
  8
GSLAYER
 10
3739.3035553575
 20
3380.3981810762
  0
VERTEX
  8
GSLAYER
 10
3739.3035553575
 20
3687.7508307585
  0
VERTEX
  8
GSLAYER
 10
3825.7251787843
 20
3687.7508307585
  0
VERTEX
  8
GSLAYER
 10
3825.7251787843
 20
3380.3981810762
  0
VERTEX
  8
GSLAYER
 10
3739.3035553575
 20
3380.3981810762
  0
SEQEND
  0
POLYLINE
  8
GSLAYER
 70
129
 66
1
  0
VERTEX
  8
GSLAYER
 10
3534.1525344209
 20
3606.3767271031
  0
VERTEX
  8
GSLAYER
 10
3521.1759129466
 20
3606.7859849589
  0
VERTEX
  8
GSLAYER
 10
3521.242802748
 20
3595.6678132105
  0
VERTEX
  8
GSLAYER
 10
3497.0955844376
 20
3595.7360228531
  0
VERTEX
  8
GSLAYER
 10
3498.9016090758
 20
3385.4456946307
  0
VERTEX
  8
GSLAYER
 10
3563.3164878374
 20
3385.9231621291
  0
VERTEX
  8
GSLAYER
 10
3562.3800306176
 20
3488.8515128549
  0
VERTEX
  8
GSLAYER
 10
3536.2261182647
 20
3488.3058357139
  0
VERTEX
  8
GSLAYER
 10
3534.1525344209
 20
3606.3767271031
  0
SEQEND
  0
POLYLINE
  8
GSLAYER
 70
129
 66
1
  0
VERTEX
  8
GSLAYER
 10
3514.4200430038
 20
3057.084475019
  0
VERTEX
  8
GSLAYER
 10
3514.4200430038
 20
3318.4638255699
  0
VERTEX
  8
GSLAYER
 10
3664.5207573767
 20
3318.4638255699
  0
VERTEX
  8
GSLAYER
 10
3664.5207573767
 20
3057.084475019
  0
VERTEX
  8
GSLAYER
 10
3514.4200430038
 20
3057.084475019
  0
SEQEND
  0
POLYLINE
  8
GSLAYER
 70
129
 66
1
  0
VERTEX
  8
GSLAYER
 10
3679.7047422977
 20
3055.6520725238
  0
VERTEX
  8
GSLAYER
 10
3679.7047422977
 20
3317.8499387862
  0
VERTEX
  8
GSLAYER
 10
3831.4108119045
 20
3317.8499387862
  0
VERTEX
  8
GSLAYER
 10
3831.4108119045
 20
3055.6520725238
  0
VERTEX
  8
GSLAYER
 10
3679.7047422977
 20
3055.6520725238
  0
SEQEND
  0
POLYLINE
  8
GSLAYER
 70
129
 66
1
  0
VERTEX
  8
GSLAYER
 10
3511.7444509472
 20
3982.4164869119
  0
VERTEX
  8
GSLAYER
 10
3509.1357486921
 20
3848.6573777182
  0
VERTEX
  8
GSLAYER
 10
3492.4132983386
 20
3848.0434909345
  0
VERTEX
  8
GSLAYER
 10
3495.7577884093
 20
3055.3792339533
  0
VERTEX
  8
GSLAYER
 10
3894.8892334463
 20
3055.3110243106
  0
VERTEX
  8
GSLAYER
 10
3894.8223436449
 20
2830.7648807789
  0
VERTEX
  8
GSLAYER
 10
4314.957186326
 20
2836.8355389728
  0
VERTEX
  8
GSLAYER
 10
4325.3251055451
 20
3680.0431411415
  0
VERTEX
  8
GSLAYER
 10
4243.7864376215
 20
3679.770302571
  0
VERTEX
  8
GSLAYER
 10
4243.4519886144
 20
3712.1016731767
  0
VERTEX
  8
GSLAYER
 10
4385.1914778106
 20
3712.8519792456
  0
VERTEX
  8
GSLAYER
 10
4384.3888001936
 20
3837.6074156124
  0
VERTEX
  8
GSLAYER
 10
4240.7763965579
 20
3837.4709963272
  0
VERTEX
  8
GSLAYER
 10
4243.6526580187
 20
3848.9302162887
  0
VERTEX
  8
GSLAYER
 10
4339.3050740406
 20
3850.2261994986
  0
VERTEX
  8
GSLAYER
 10
4339.3050740406
 20
3974.9134262228
  0
VERTEX
  8
GSLAYER
 10
3511.7444509472
 20
3982.4164869119
  0
SEQEND
  0
POLYLINE
  8
GSLAYER
 70
129
 66
1
  0
VERTEX
  8
GSLAYER
 10
4050.0735727267
 20
3888.5600186556
  0
VERTEX
  8
GSLAYER
 10
4017.4982394381
 20
3783.585378651
  0
VERTEX
  8
GSLAYER
 10
3996.2941723899
 20
3788.2918439923
  0
VERTEX
  8
GSLAYER
 10
3970.6084886469
 20
3700.5060339299
  0
VERTEX
  8
GSLAYER
 10
3970.4078192427
 20
3700.8470821431
  0
VERTEX
  8
GSLAYER
 10
3970.2071498385
 20
3701.1199207136
  0
VERTEX
  8
GSLAYER
 10
3993.5516905319
 20
3693.9579082376
  0
VERTEX
  8
GSLAYER
 10
3986.7289307877
 20
3671.6533550982
  0
VERTEX
  8
GSLAYER
 10
4052.8829443861
 20
3651.3268815951
  0
VERTEX
  8
GSLAYER
 10
4076.8294932923
 20
3739.3855302279
  0
VERTEX
  8
GSLAYER
 10
4057.4983406837
 20
3745.0469305661
  0
VERTEX
  8
GSLAYER
 10
4094.6221804684
 20
3875.3273479858
  0
VERTEX
  8
GSLAYER
 10
4050.0735727267
 20
3888.5600186556
  0
SEQEND
  0
POLYLINE
  8
GSLAYER
 70
129
 66
1
  0
VERTEX
  8
GSLAYER
 10
4116.695814935
 20
3789.3831982744
  0
VERTEX
  8
GSLAYER
 10
4103.7860832621
 20
3739.1809013001
  0
VERTEX
  8
GSLAYER
 10
4114.6222310912
 20
3735.9068384539
  0
VERTEX
  8
GSLAYER
 10
4129.0704281966
 20
3786.5866029266
  0
VERTEX
  8
GSLAYER
 10
4116.695814935
 20
3789.3831982744
  0
SEQEND
  0
POLYLINE
  8
GSLAYER
 70
129
 66
1
  0
VERTEX
  8
GSLAYER
 10
3730.0727627624
 20
3977.9828601411
  0
VERTEX
  8
GSLAYER
 10
3728.7349667341
 20
3932.7598670786
  0
VERTEX
  8
GSLAYER
 10
3793.5511843042
 20
3934.0558502886
  0
VERTEX
  8
GSLAYER
 10
3794.4207517226
 20
3915.3664082085
  0
VERTEX
  8
GSLAYER
 10
3815.2903697637
 20
3915.3664082085
  0
VERTEX
  8
GSLAYER
 10
3817.2301740048
 20
3953.0863405818
  0
VERTEX
  8
GSLAYER
 10
3810.4074142605
 20
3952.8135020113
  0
VERTEX
  8
GSLAYER
 10
3810.6080836648
 20
3956.9742902116
  0
VERTEX
  8
GSLAYER
 10
3806.7953649842
 20
3957.1789191395
  0
VERTEX
  8
GSLAYER
 10
3806.7953649842
 20
3977.5053926427
  0
VERTEX
  8
GSLAYER
 10
3730.0727627624
 20
3977.9828601411
  0
SEQEND
  0
POLYLINE
  8
GSLAYER
 70
129
 66
1
  0
VERTEX
  8
GSLAYER
 10
3958.5683243924
 20
3954.3823237917
  0
VERTEX
  8
GSLAYER
 10
3958.5683243924
 20
3976.2094094327
  0
VERTEX
  8
GSLAYER
 10
4027.331040246
 20
3976.2094094327
  0
VERTEX
  8
GSLAYER
 10
4027.331040246
 20
3954.3823237917
  0
VERTEX
  8
GSLAYER
 10
3958.5683243924
 20
3954.3823237917
  0
SEQEND
  0
POLYLINE
  8
GSLAYER
 70
128
 66
1
  0
VERTEX
  8
GSLAYER
 10
3859.0362998885
 20
3976.0047805049
  0
VERTEX
  8
GSLAYER
 10
3862.2470103563
 20
2833.493266484
  0
SEQEND
  0
POLYLINE
  8
GSLAYER
 70
128
 66
1
  0
VERTEX
  8
GSLAYER
 10
4135.0905103238
 20
3976.4822480033
  0
VERTEX
  8
GSLAYER
 10
4140.5085842384
 20
3965.0912376844
  0
VERTEX
  8
GSLAYER
 10
4140.1741352313
 20
3951.6539380866
  0
VERTEX
  8
GSLAYER
 10
4140.0403556285
 20
3951.3810995161
  0
VERTEX
  8
GSLAYER
 10
4139.9734658271
 20
3950.9718416603
  0
VERTEX
  8
GSLAYER
 10
4139.9734658271
 20
3950.2897452341
  0
VERTEX
  8
GSLAYER
 10
4137.9667717846
 20
3930.7135777998
  0
VERTEX
  8
GSLAYER
 10
4137.0972043663
 20
3916.1167142774
  0
VERTEX
  8
GSLAYER
 10
4137.0972043663
 20
3915.5028274937
  0
VERTEX
  8
GSLAYER
 10
4137.1640941677
 20
3915.2299889232
  0
VERTEX
  8
GSLAYER
 10
4137.1640941677
 20
3914.5478924969
  0
VERTEX
  8
GSLAYER
 10
4141.7794904652
 20
3895.3127732758
  0
VERTEX
  8
GSLAYER
 10
4141.9801598695
 20
3895.0399347053
  0
VERTEX
  8
GSLAYER
 10
4142.1808292737
 20
3894.8353057774
  0
VERTEX
  8
GSLAYER
 10
4150.6089442519
 20
3885.8316329505
  0
VERTEX
  8
GSLAYER
 10
4160.2410756555
 20
3876.1458636973
  0
VERTEX
  8
GSLAYER
 10
4160.3079654569
 20
3875.8048154842
  0
VERTEX
  8
GSLAYER
 10
4166.9969455983
 20
3865.8462076605
  0
VERTEX
  8
GSLAYER
 10
4173.0170277256
 20
3853.4320527021
  0
VERTEX
  8
GSLAYER
 10
4173.083917527
 20
3853.1592141316
  0
VERTEX
  8
GSLAYER
 10
4173.2176971298
 20
3852.8181659185
  0
VERTEX
  8
GSLAYER
 10
4170.7427744775
 20
3829.2858392118
  0
VERTEX
  8
GSLAYER
 10
4170.7427744775
 20
3828.876581356
  0
VERTEX
  8
GSLAYER
 10
4170.7427744775
 20
3828.3991138576
  0
VERTEX
  8
GSLAYER
 10
4169.4049784492
 20
3807.3905439282
  0
VERTEX
  8
GSLAYER
 10
4169.3380886478
 20
3805.6853028625
  0
VERTEX
  8
GSLAYER
 10
4169.2711988464
 20
3804.0482714394
  0
VERTEX
  8
GSLAYER
 10
4169.2711988464
 20
3803.2979653705
  0
VERTEX
  8
GSLAYER
 10
4169.2711988464
 20
3802.4794496589
  0
VERTEX
  8
GSLAYER
 10
4169.2711988464
 20
3801.6609339474
  0
VERTEX
  8
GSLAYER
 10
4169.3380886478
 20
3787.9507957792
  0
VERTEX
  8
GSLAYER
 10
4169.3380886478
 20
3787.5415379234
  0
VERTEX
  8
GSLAYER
 10
4166.7962761941
 20
3763.9410015741
  0
VERTEX
  8
GSLAYER
 10
4166.8631659955
 20
3763.3271147904
  0
VERTEX
  8
GSLAYER
 10
4166.7293863926
 20
3762.7132280068
  0
VERTEX
  8
GSLAYER
 10
4166.7293863926
 20
3762.2357605084
  0
VERTEX
  8
GSLAYER
 10
4166.7293863926
 20
3761.8265026526
  0
VERTEX
  8
GSLAYER
 10
4166.7293863926
 20
3761.3490351542
  0
VERTEX
  8
GSLAYER
 10
4166.7293863926
 20
3760.8033580132
  0
VERTEX
  8
GSLAYER
 10
4166.6624965912
 20
3760.4623098
  0
VERTEX
  8
GSLAYER
 10
4163.8531249318
 20
3736.1796770244
  0
VERTEX
  8
GSLAYER
 10
4163.8531249318
 20
3735.0201130997
  0
VERTEX
  8
GSLAYER
 10
4160.7093042654
 20
3716.0578324491
  0
VERTEX
  8
GSLAYER
 10
4160.642414464
 20
3715.7849938786
  0
VERTEX
  8
GSLAYER
 10
4160.5086348611
 20
3715.5121553081
  0
VERTEX
  8
GSLAYER
 10
4160.3748552583
 20
3715.1028974523
  0
VERTEX
  8
GSLAYER
 10
4159.2377286343
 20
3699.0736314347
  0
VERTEX
  8
GSLAYER
 10
4159.2377286343
 20
3698.664373579
  0
VERTEX
  8
GSLAYER
 10
4164.522022946
 20
3680.861656853
  0
VERTEX
  8
GSLAYER
 10
4164.7226923502
 20
3680.5888182825
  0
VERTEX
  8
GSLAYER
 10
4165.0571413573
 20
3679.770302571
  0
VERTEX
  8
GSLAYER
 10
4170.2745458676
 20
3653.714219087
  0
VERTEX
  8
GSLAYER
 10
4170.6089948747
 20
3652.9639130181
  0
VERTEX
  8
GSLAYER
 10
4171.4116724916
 20
3650.5083658835
  0
VERTEX
  8
GSLAYER
 10
4171.6123418959
 20
3649.8262694572
  0
VERTEX
  8
GSLAYER
 10
4171.9467909029
 20
3649.144173031
  0
VERTEX
  8
GSLAYER
 10
4172.1474603072
 20
3648.3256573194
  0
VERTEX
  8
GSLAYER
 10
4175.6257299807
 20
3633.2513262986
  0
VERTEX
  8
GSLAYER
 10
4175.6926197821
 20
3632.9102780855
  0
VERTEX
  8
GSLAYER
 10
4175.9601789878
 20
3632.7056491576
  0
VERTEX
  8
GSLAYER
 10
4176.0270687892
 20
3632.4328105871
  0
VERTEX
  8
GSLAYER
 10
4176.2277381934
 20
3632.0235527313
  0
VERTEX
  8
GSLAYER
 10
4176.5621872005
 20
3631.6142948755
  0
VERTEX
  8
GSLAYER
 10
4176.7628566047
 20
3631.2050370198
  0
VERTEX
  8
GSLAYER
 10
4180.6424650867
 20
3615.2439806448
  0
VERTEX
  8
GSLAYER
 10
4180.5086854839
 20
3614.9029324316
  0
VERTEX
  8
GSLAYER
 10
4180.3080160797
 20
3614.4254649332
  0
VERTEX
  8
GSLAYER
 10
4180.3749058811
 20
3614.1526263627
  0
VERTEX
  8
GSLAYER
 10
4180.2411262783
 20
3613.6069492217
  0
VERTEX
  8
GSLAYER
 10
4180.1742364768
 20
3613.3341106512
  0
VERTEX
  8
GSLAYER
 10
4172.3481297114
 20
3601.806681047
  0
VERTEX
  8
GSLAYER
 10
4171.9467909029
 20
3601.4656328339
  0
VERTEX
  8
GSLAYER
 10
4171.6792316973
 20
3601.261003906
  0
VERTEX
  8
GSLAYER
 10
4159.4383980385
 20
3589.528945374
  0
VERTEX
  8
GSLAYER
 10
4159.2377286343
 20
3589.2561068035
  0
VERTEX
  8
GSLAYER
 10
4158.9701694286
 20
3589.1878971608
  0
VERTEX
  8
GSLAYER
 10
4158.6357204216
 20
3588.8468489477
  0
VERTEX
  8
GSLAYER
 10
4142.2477190751
 20
3576.2280650615
  0
VERTEX
  8
GSLAYER
 10
4141.7794904652
 20
3575.6823879205
  0
VERTEX
  8
GSLAYER
 10
4141.3781516568
 20
3575.3413397073
  0
VERTEX
  8
GSLAYER
 10
4141.0437026497
 20
3575.0002914942
  0
VERTEX
  8
GSLAYER
 10
4140.8430332454
 20
3574.5910336384
  0
VERTEX
  8
GSLAYER
 10
4140.441694437
 20
3574.0453564974
  0
VERTEX
  8
GSLAYER
 10
4140.1741352313
 20
3573.7043082843
  0
VERTEX
  8
GSLAYER
 10
4139.7727964228
 20
3573.2950504285
  0
VERTEX
  8
GSLAYER
 10
4121.4449908354
 20
3560.4716376144
  0
VERTEX
  8
GSLAYER
 10
4121.0436520269
 20
3560.0623797586
  0
VERTEX
  8
GSLAYER
 10
4120.6423132184
 20
3559.7895411881
  0
VERTEX
  8
GSLAYER
 10
4119.9065254029
 20
3559.1756544045
  0
VERTEX
  8
GSLAYER
 10
4119.5051865944
 20
3558.7663965487
  0
VERTEX
  8
GSLAYER
 10
4118.635619176
 20
3558.0843001224
  0
VERTEX
  8
GSLAYER
 10
4102.9834056451
 20
3546.6932898035
  0
VERTEX
  8
GSLAYER
 10
4102.7158464395
 20
3546.4886608757
  0
VERTEX
  8
GSLAYER
 10
4089.873004568
 20
3537.7578266193
  0
VERTEX
  8
GSLAYER
 10
4089.6054453624
 20
3537.6896169766
  0
VERTEX
  8
GSLAYER
 10
4074.5552400442
 20
3529.1634116481
  0
VERTEX
  8
GSLAYER
 10
4074.1539012357
 20
3528.9587827202
  0
VERTEX
  8
GSLAYER
 10
4073.8863420301
 20
3528.7541537923
  0
VERTEX
  8
GSLAYER
 10
4073.551893023
 20
3528.5495248645
  0
VERTEX
  8
GSLAYER
 10
4060.5752715487
 20
3519.4094327523
  0
VERTEX
  8
GSLAYER
 10
4051.6789279606
 20
3511.9745817058
  0
VERTEX
  8
GSLAYER
 10
4051.3444789536
 20
3511.7699527779
  0
VERTEX
  8
GSLAYER
 10
4051.1438095493
 20
3511.4971142074
  0
VERTEX
  8
GSLAYER
 10
4045.7257356348
 20
3492.87588177
  0
VERTEX
  8
GSLAYER
 10
4045.9932948405
 20
3491.6481082027
  0
VERTEX
  8
GSLAYER
 10
4046.3277438475
 20
3491.1024310616
  0
VERTEX
  8
GSLAYER
 10
4046.5284132518
 20
3490.488544278
  0
VERTEX
  8
GSLAYER
 10
4046.729082656
 20
3489.942867137
  0
VERTEX
  8
GSLAYER
 10
4047.0635316631
 20
3489.4653996386
  0
VERTEX
  8
GSLAYER
 10
4056.428103861
 20
3462.4543811578
  0
VERTEX
  8
GSLAYER
 10
4056.4949936625
 20
3461.7722847315
  0
VERTEX
  8
GSLAYER
 10
4056.6287732653
 20
3461.1583979479
  0
VERTEX
  8
GSLAYER
 10
4056.8294426695
 20
3460.0670436658
  0
VERTEX
  8
GSLAYER
 10
4056.9632222724
 20
3459.6577858101
  0
VERTEX
  8
GSLAYER
 10
4056.9632222724
 20
3459.1803183117
  0
VERTEX
  8
GSLAYER
 10
4057.0301120738
 20
3458.6346411706
  0
VERTEX
  8
GSLAYER
 10
4055.8260956483
 20
3437.3532326707
  0
VERTEX
  8
GSLAYER
 10
4055.8260956483
 20
3437.0121844575
  0
VERTEX
  8
GSLAYER
 10
4055.8260956483
 20
3436.5347169591
  0
VERTEX
  8
GSLAYER
 10
4055.8260956483
 20
3436.0572494607
  0
VERTEX
  8
GSLAYER
 10
4063.050194201
 20
3406.7271031307
  0
VERTEX
  8
GSLAYER
 10
4063.2508636053
 20
3406.113216347
  0
VERTEX
  8
GSLAYER
 10
4063.4515330095
 20
3405.6357488486
  0
VERTEX
  8
GSLAYER
 10
4063.5184228109
 20
3405.0900717076
  0
VERTEX
  8
GSLAYER
 10
4063.852871818
 20
3404.3397656387
  0
VERTEX
  8
GSLAYER
 10
4064.7893290378
 20
3370.3031539672
  0
VERTEX
  8
GSLAYER
 10
4064.8562188392
 20
3369.5528478983
  0
VERTEX
  8
GSLAYER
 10
4064.9231086406
 20
3369.0753803999
  0
VERTEX
  8
GSLAYER
 10
4065.0568882434
 20
3368.1886550458
  0
VERTEX
  8
GSLAYER
 10
4065.1237780449
 20
3367.5065586195
  0
VERTEX
  8
GSLAYER
 10
4065.2575576477
 20
3366.5516236227
  0
VERTEX
  8
GSLAYER
 10
4060.8428307544
 20
3335.6526555122
  0
VERTEX
  8
GSLAYER
 10
4060.7090511515
 20
3335.0387687285
  0
VERTEX
  8
GSLAYER
 10
4060.5752715487
 20
3334.6295108727
  0
VERTEX
  8
GSLAYER
 10
4060.3746021445
 20
3334.220253017
  0
VERTEX
  8
GSLAYER
 10
4054.6889690243
 20
3309.5283623856
  0
VERTEX
  8
GSLAYER
 10
4054.6889690243
 20
3309.1873141725
  0
VERTEX
  8
GSLAYER
 10
4054.6889690243
 20
3308.6416370314
  0
VERTEX
  8
GSLAYER
 10
4054.6889690243
 20
3308.0959598904
  0
VERTEX
  8
GSLAYER
 10
4049.7391237196
 20
3276.992362852
  0
VERTEX
  8
GSLAYER
 10
4049.7391237196
 20
3276.6513146389
  0
VERTEX
  8
GSLAYER
 10
4049.6053441168
 20
3276.3784760683
  0
VERTEX
  8
GSLAYER
 10
4049.6053441168
 20
3275.9692182126
  0
VERTEX
  8
GSLAYER
 10
4049.6053441168
 20
3275.4917507142
  0
VERTEX
  8
GSLAYER
 10
4048.2006582871
 20
3256.6658893488
  0
VERTEX
  8
GSLAYER
 10
4048.1337684857
 20
3256.3248411357
  0
VERTEX
  8
GSLAYER
 10
4047.9999888829
 20
3256.0520025652
  0
VERTEX
  8
GSLAYER
 10
4047.9330990815
 20
3255.7791639946
  0
VERTEX
  8
GSLAYER
 10
4047.7993194786
 20
3255.3699061389
  0
VERTEX
  8
GSLAYER
 10
4040.1738821174
 20
3234.6341747799
  0
VERTEX
  8
GSLAYER
 10
4039.9732127132
 20
3234.2249169242
  0
VERTEX
  8
GSLAYER
 10
4039.772543309
 20
3233.6110301405
  0
VERTEX
  8
GSLAYER
 10
4039.5049841033
 20
3232.792514429
  0
VERTEX
  8
GSLAYER
 10
4039.3043146991
 20
3232.3150469306
  0
VERTEX
  8
GSLAYER
 10
4025.4581258064
 20
3212.4660409258
  0
VERTEX
  8
GSLAYER
 10
4025.2574564021
 20
3212.1932023553
  0
VERTEX
  8
GSLAYER
 10
4025.0567869979
 20
3211.8521541421
  0
VERTEX
  8
GSLAYER
 10
4024.8561175937
 20
3211.5793155716
  0
VERTEX
  8
GSLAYER
 10
4024.5216685866
 20
3210.965428788
  0
VERTEX
  8
GSLAYER
 10
4024.2541093809
 20
3210.6925902175
  0
VERTEX
  8
GSLAYER
 10
4023.9196603739
 20
3210.2833323617
  0
VERTEX
  8
GSLAYER
 10
4023.5183215654
 20
3209.7376552207
  0
VERTEX
  8
GSLAYER
 10
4010.4748102897
 20
3192.5488252784
  0
VERTEX
  8
GSLAYER
 10
4010.1403612826
 20
3192.0031481374
  0
VERTEX
  8
GSLAYER
 10
4009.9396918783
 20
3191.5938902816
  0
VERTEX
  8
GSLAYER
 10
4009.7390224741
 20
3191.3210517111
  0
VERTEX
  8
GSLAYER
 10
4009.4714632684
 20
3191.0482131406
  0
VERTEX
  8
GSLAYER
 10
4009.2707938642
 20
3190.6389552848
  0
VERTEX
  8
GSLAYER
 10
4008.9363448571
 20
3190.2979070717
  0
VERTEX
  8
GSLAYER
 10
4008.6687856515
 20
3189.8886492159
  0
VERTEX
  8
GSLAYER
 10
3991.0098780782
 20
3166.4927417945
  0
VERTEX
  8
GSLAYER
 10
3990.809208674
 20
3166.0834839387
  0
VERTEX
  8
GSLAYER
 10
3990.6085392697
 20
3165.6742260829
  0
VERTEX
  8
GSLAYER
 10
3990.2740902626
 20
3164.8557103714
  0
VERTEX
  8
GSLAYER
 10
3990.0734208584
 20
3164.4464525156
  0
VERTEX
  8
GSLAYER
 10
3989.8727514542
 20
3163.9689850172
  0
VERTEX
  8
GSLAYER
 10
3982.7824325043
 20
3145.9616393634
  0
VERTEX
  8
GSLAYER
 10
3982.4479834972
 20
3145.1431236519
  0
VERTEX
  8
GSLAYER
 10
3982.247314093
 20
3144.4610272256
  0
VERTEX
  8
GSLAYER
 10
3982.0466446887
 20
3143.8471404419
  0
VERTEX
  8
GSLAYER
 10
3981.8459752845
 20
3143.096834373
  0
VERTEX
  8
GSLAYER
 10
3981.7790854831
 20
3142.4147379467
  0
VERTEX
  8
GSLAYER
 10
3981.6453058802
 20
3141.7326415205
  0
VERTEX
  8
GSLAYER
 10
3981.5115262774
 20
3140.3002390253
  0
VERTEX
  8
GSLAYER
 10
3981.3777466746
 20
3139.618142599
  0
VERTEX
  8
GSLAYER
 10
3968.5349048031
 20
3113.0845916166
  0
VERTEX
  8
GSLAYER
 10
3968.2673455975
 20
3112.0614469772
  0
VERTEX
  8
GSLAYER
 10
3968.1335659946
 20
3111.6521891215
  0
VERTEX
  8
GSLAYER
 10
3967.9328965904
 20
3110.9700926952
  0
VERTEX
  8
GSLAYER
 10
3967.866006789
 20
3110.4926251968
  0
VERTEX
  8
GSLAYER
 10
3967.7991169876
 20
3109.9469480558
  0
VERTEX
  8
GSLAYER
 10
3967.6653373847
 20
3109.4012709147
  0
VERTEX
  8
GSLAYER
 10
3955.3576139246
 20
3079.2526088731
  0
VERTEX
  8
GSLAYER
 10
3954.9562751161
 20
3078.4340931616
  0
VERTEX
  8
GSLAYER
 10
3954.7556057118
 20
3077.8884160205
  0
VERTEX
  8
GSLAYER
 10
3954.6887159104
 20
3077.61557745
  0
VERTEX
  8
GSLAYER
 10
3954.5549363076
 20
3077.3427388795
  0
VERTEX
  8
GSLAYER
 10
3944.4545762941
 20
3057.084475019
  0
VERTEX
  8
GSLAYER
 10
3944.120127287
 20
3056.4705882353
  0
VERTEX
  8
GSLAYER
 10
3943.7187884785
 20
3055.3792339533
  0
VERTEX
  8
GSLAYER
 10
3943.6518986771
 20
3054.9017664549
  0
VERTEX
  8
GSLAYER
 10
3943.5181190743
 20
3054.4925085991
  0
VERTEX
  8
GSLAYER
 10
3943.4512292729
 20
3054.0832507433
  0
VERTEX
  8
GSLAYER
 10
3943.2505598686
 20
3053.1965253892
  0
VERTEX
  8
GSLAYER
 10
3943.2505598686
 20
3052.6508482481
  0
VERTEX
  8
GSLAYER
 10
3934.5548856848
 20
3025.5034104822
  0
VERTEX
  8
GSLAYER
 10
3934.3542162806
 20
3025.0259429838
  0
VERTEX
  8
GSLAYER
 10
3933.9528774721
 20
3024.1392176296
  0
VERTEX
  8
GSLAYER
 10
3933.8190978693
 20
3023.7299597738
  0
VERTEX
  8
GSLAYER
 10
3933.618428465
 20
3023.3207019181
  0
VERTEX
  8
GSLAYER
 10
3933.5515386636
 20
3022.8432344197
  0
VERTEX
  8
GSLAYER
 10
3933.3508692594
 20
3022.2975572786
  0
VERTEX
  8
GSLAYER
 10
3933.0164202523
 20
3021.7518801376
  0
VERTEX
  8
GSLAYER
 10
3920.9093661964
 20
2999.3791173556
  0
VERTEX
  8
GSLAYER
 10
3920.5749171893
 20
2998.560601644
  0
VERTEX
  8
GSLAYER
 10
3919.9060191752
 20
2996.1050545094
  0
VERTEX
  8
GSLAYER
 10
3919.7053497709
 20
2995.2865387979
  0
VERTEX
  8
GSLAYER
 10
3919.6384599695
 20
2994.4680230864
  0
VERTEX
  8
GSLAYER
 10
3919.3040109624
 20
2992.694572378
  0
VERTEX
  8
GSLAYER
 10
3919.237121161
 20
2991.9442663091
  0
VERTEX
  8
GSLAYER
 10
3913.7521574451
 20
2979.3254824229
  0
VERTEX
  8
GSLAYER
 10
3913.5514880408
 20
2979.120853495
  0
VERTEX
  8
GSLAYER
 10
3913.3508186366
 20
2978.7798052819
  0
VERTEX
  8
GSLAYER
 10
3913.1501492324
 20
2978.575176354
  0
VERTEX
  8
GSLAYER
 10
3906.5280588924
 20
2967.1159563925
  0
VERTEX
  8
GSLAYER
 10
3906.3273894881
 20
2966.9113274646
  0
VERTEX
  8
GSLAYER
 10
3906.1936098853
 20
2966.297440681
  0
VERTEX
  8
GSLAYER
 10
3900.0397481552
 20
2955.5885267883
  0
VERTEX
  8
GSLAYER
 10
3899.7052991482
 20
2955.1792689326
  0
VERTEX
  8
GSLAYER
 10
3899.4377399425
 20
2954.7700110768
  0
VERTEX
  8
GSLAYER
 10
3894.1534456308
 20
2949.5178685944
  0
VERTEX
  8
GSLAYER
 10
3893.7521068223
 20
2949.3814493092
  0
VERTEX
  8
GSLAYER
 10
3893.216988411
 20
2949.1768203813
  0
VERTEX
  8
GSLAYER
 10
3865.7921698313
 20
2953.1329796537
  0
VERTEX
  8
GSLAYER
 10
3865.4577208242
 20
2953.269398939
  0
VERTEX
  8
GSLAYER
 10
3865.1901616186
 20
2953.3376085816
  0
VERTEX
  8
GSLAYER
 10
3736.2266244925
 20
2955.9295750015
  0
VERTEX
  8
GSLAYER
 10
3618.7012434081
 20
2958.3851221361
  0
VERTEX
  8
GSLAYER
 10
3478.4333298431
 20
2957.0891389262
  0
SEQEND
  0
POLYLINE
  8
GSLAYER
 70
128
 66
1
  0
VERTEX
  8
GSLAYER
 10
4218.502092687
 20
3974.2995394392
  0
VERTEX
  8
GSLAYER
 10
4215.5589414248
 20
3944.6965545386
  0
VERTEX
  8
GSLAYER
 10
4234.6225348278
 20
3745.5243980645
  0
VERTEX
  8
GSLAYER
 10
4255.8934916774
 20
3598.327989273
  0
VERTEX
  8
GSLAYER
 10
4220.5087867295
 20
3533.3241998484
  0
VERTEX
  8
GSLAYER
 10
4218.4352028856
 20
3477.8697603918
  0
VERTEX
  8
GSLAYER
 10
4227.6659954808
 20
3414.912260246
  0
VERTEX
  8
GSLAYER
 10
4227.2646566723
 20
3309.3919431003
  0
VERTEX
  8
GSLAYER
 10
4223.3850481903
 20
3230.7462251501
  0
VERTEX
  8
GSLAYER
 10
4219.3716601054
 20
3199.9154666822
  0
VERTEX
  8
GSLAYER
 10
4206.7294876382
 20
3180.0664606774
  0
VERTEX
  8
GSLAYER
 10
4206.6625978368
 20
3179.7254124643
  0
VERTEX
  8
GSLAYER
 10
4112.3479778431
 20
3050.9456071824
  0
VERTEX
  8
GSLAYER
 10
4053.4849525988
 20
2928.7139275929
  0
VERTEX
  8
GSLAYER
 10
4025.1236767993
 20
2877.0792281234
  0
VERTEX
  8
GSLAYER
 10
4024.9898971965
 20
2876.6699702676
  0
VERTEX
  8
GSLAYER
 10
4012.0132757222
 20
2845.9074214423
  0
VERTEX
  8
GSLAYER
 10
3995.3577151701
 20
2836.8355389728
  0
VERTEX
  8
GSLAYER
 10
3994.9563763616
 20
2836.8355389728
  0
VERTEX
  8
GSLAYER
 10
3994.5550375531
 20
2837.0401679007
  0
VERTEX
  8
GSLAYER
 10
3974.3543175261
 20
2839.4275053927
  0
VERTEX
  8
GSLAYER
 10
3951.8124544496
 20
2845.975631085
  0
VERTEX
  8
GSLAYER
 10
3951.544895244
 20
2846.1120503702
  0
VERTEX
  8
GSLAYER
 10
3951.0097768327
 20
2846.1120503702
  0
VERTEX
  8
GSLAYER
 10
3923.6518480543
 20
2853.0694339183
  0
VERTEX
  8
GSLAYER
 10
3900.5079767651
 20
2857.5030606891
  0
VERTEX
  8
GSLAYER
 10
3899.839078751
 20
2857.9123185449
  0
VERTEX
  8
GSLAYER
 10
3877.3641054759
 20
2869.5079577917
  0
VERTEX
  8
GSLAYER
 10
3876.8289870646
 20
2869.5761674343
  0
VERTEX
  8
GSLAYER
 10
3876.3607584547
 20
2869.7807963622
  0
VERTEX
  8
GSLAYER
 10
3875.9594196462
 20
2869.9854252901
  0
VERTEX
  8
GSLAYER
 10
3875.0229624264
 20
2870.0536349327
  0
VERTEX
  8
GSLAYER
 10
3874.3540644123
 20
2870.0536349327
  0
VERTEX
  8
GSLAYER
 10
3847.7988132509
 20
2876.4653413397
  0
VERTEX
  8
GSLAYER
 10
3847.5981438467
 20
2876.6699702676
  0
VERTEX
  8
GSLAYER
 10
3847.2636948396
 20
2876.8063895529
  0
VERTEX
  8
GSLAYER
 10
3811.4776510832
 20
2897.8149594823
  0
VERTEX
  8
GSLAYER
 10
3808.8020590266
 20
2898.974523407
  0
VERTEX
  8
GSLAYER
 10
3806.9960343884
 20
2899.8612487612
  0
VERTEX
  8
GSLAYER
 10
3806.1933567715
 20
2900.2705066169
  0
VERTEX
  8
GSLAYER
 10
3805.3237893531
 20
2900.6797644727
  0
VERTEX
  8
GSLAYER
 10
3788.7351186024
 20
2906.7504226666
  0
VERTEX
  8
GSLAYER
 10
3787.7317715812
 20
2906.682213024
  0
VERTEX
  8
GSLAYER
 10
3786.8622041628
 20
2906.2729551682
  0
VERTEX
  8
GSLAYER
 10
3786.4608653543
 20
2906.0683262403
  0
VERTEX
  8
GSLAYER
 10
3786.0595265459
 20
2905.7272780272
  0
VERTEX
  8
GSLAYER
 10
3785.6581877374
 20
2905.5908587419
  0
VERTEX
  8
GSLAYER
 10
3785.2568489289
 20
2905.2498105288
  0
VERTEX
  8
GSLAYER
 10
3784.9223999218
 20
2904.840552673
  0
VERTEX
  8
GSLAYER
 10
3767.7986107598
 20
2896.5189762724
  0
VERTEX
  8
GSLAYER
 10
3767.3972719514
 20
2896.5189762724
  0
VERTEX
  8
GSLAYER
 10
3767.0628229443
 20
2896.4507666298
  0
VERTEX
  8
GSLAYER
 10
3766.6614841358
 20
2896.4507666298
  0
VERTEX
  8
GSLAYER
 10
3738.3670981377
 20
2890.3801084359
  0
VERTEX
  8
GSLAYER
 10
3737.765089925
 20
2890.2436891506
  0
VERTEX
  8
GSLAYER
 10
3737.2968613151
 20
2890.175479508
  0
VERTEX
  8
GSLAYER
 10
3736.7617429038
 20
2890.0390602227
  0
VERTEX
  8
GSLAYER
 10
3736.159734691
 20
2889.9708505801
  0
VERTEX
  8
GSLAYER
 10
3735.6915060811
 20
2889.9708505801
  0
VERTEX
  8
GSLAYER
 10
3735.0894978684
 20
2889.9708505801
  0
VERTEX
  8
GSLAYER
 10
3710.6747203523
 20
2888.1291902291
  0
VERTEX
  8
GSLAYER
 10
3710.2733815438
 20
2888.1291902291
  0
VERTEX
  8
GSLAYER
 10
3709.7382631325
 20
2888.1291902291
  0
VERTEX
  8
GSLAYER
 10
3709.1362549198
 20
2888.1291902291
  0
VERTEX
  8
GSLAYER
 10
3706.6613322675
 20
2888.5384480849
  0
VERTEX
  8
GSLAYER
 10
3705.8586546505
 20
2888.6748673702
  0
VERTEX
  8
GSLAYER
 10
3703.7181810053
 20
2889.0841252259
  0
VERTEX
  8
GSLAYER
 10
3676.0926930213
 20
2896.041508774
  0
VERTEX
  8
GSLAYER
 10
3675.3569052058
 20
2896.041508774
  0
VERTEX
  8
GSLAYER
 10
3674.5542275888
 20
2896.041508774
  0
VERTEX
  8
GSLAYER
 10
3672.8819825534
 20
2896.2461377019
  0
VERTEX
  8
GSLAYER
 10
3672.1461947379
 20
2896.3825569871
  0
VERTEX
  8
GSLAYER
 10
3670.540839504
 20
2896.5189762724
  0
VERTEX
  8
GSLAYER
 10
3668.7348148658
 20
2896.6553955577
  0
VERTEX
  8
GSLAYER
 10
3645.0558251652
 20
2895.4276219903
  0
VERTEX
  8
GSLAYER
 10
3644.2531475483
 20
2895.2912027051
  0
VERTEX
  8
GSLAYER
 10
3643.5173597327
 20
2895.2229930625
  0
VERTEX
  8
GSLAYER
 10
3642.8484617186
 20
2895.0865737772
  0
VERTEX
  8
GSLAYER
 10
3642.112673903
 20
2895.0865737772
  0
VERTEX
  8
GSLAYER
 10
3641.4437758889
 20
2895.0865737772
  0
VERTEX
  8
GSLAYER
 10
3639.7046410521
 20
2895.0865737772
  0
VERTEX
  8
GSLAYER
 10
3638.9019634352
 20
2895.0865737772
  0
VERTEX
  8
GSLAYER
 10
3636.9621591942
 20
2895.2912027051
  0
VERTEX
  8
GSLAYER
 10
3610.0724590257
 20
2895.2229930625
  0
VERTEX
  8
GSLAYER
 10
3609.7380100187
 20
2895.2229930625
  0
VERTEX
  8
GSLAYER
 10
3609.3366712102
 20
2895.1547834198
  0
VERTEX
  8
GSLAYER
 10
3608.8684426003
 20
2895.0183641346
  0
VERTEX
  8
GSLAYER
 10
3608.4671037918
 20
2895.0183641346
  0
VERTEX
  8
GSLAYER
 10
3574.2195254679
 20
2892.7674459279
  0
VERTEX
  8
GSLAYER
 10
3573.4837376523
 20
2892.9038652131
  0
VERTEX
  8
GSLAYER
 10
3573.0155090424
 20
2893.108494141
  0
VERTEX
  8
GSLAYER
 10
3572.2797212269
 20
2893.1767037836
  0
VERTEX
  8
GSLAYER
 10
3571.6108232127
 20
2893.3813327115
  0
VERTEX
  8
GSLAYER
 10
3569.871688376
 20
2893.654171282
  0
VERTEX
  8
GSLAYER
 10
3546.2595884768
 20
2895.3594123477
  0
VERTEX
  8
GSLAYER
 10
3545.9920292712
 20
2895.4276219903
  0
VERTEX
  8
GSLAYER
 10
3544.6542332429
 20
2895.8368798461
  0
VERTEX
  8
GSLAYER
 10
3543.9184454274
 20
2896.041508774
  0
VERTEX
  8
GSLAYER
 10
3523.7177254003
 20
2903.4081501778
  0
VERTEX
  8
GSLAYER
 10
3523.3832763933
 20
2903.6127791057
  0
VERTEX
  8
GSLAYER
 10
3522.7812681805
 20
2903.6809887483
  0
VERTEX
  8
GSLAYER
 10
3522.3799293721
 20
2903.8856176762
  0
VERTEX
  8
GSLAYER
 10
3515.0220512165
 20
2907.9099865913
  0
VERTEX
  8
GSLAYER
 10
3514.7544920109
 20
2908.1146155192
  0
VERTEX
  8
GSLAYER
 10
3514.4200430038
 20
2908.3192444471
  0
SEQEND
  0
POLYLINE
  8
GSLAYER
 70
128
 66
1
  0
VERTEX
  8
GSLAYER
 10
3541.9117513849
 20
3610.4693056608
  0
VERTEX
  8
GSLAYER
 10
3541.1627685109
 20
3610.4201467582
  0
VERTEX
  8
GSLAYER
 10
3540.4208404206
 20
3610.2726700504
  0
VERTEX
  8
GSLAYER
 10
3539.6859671141
 20
3610.0268755374
  0
VERTEX
  8
GSLAYER
 10
3538.9581485912
 20
3609.6827632193
  0
VERTEX
  8
GSLAYER
 10
3538.2750103655
 20
3609.2391340983
  0
VERTEX
  8
GSLAYER
 10
3537.67417795
 20
3608.7139731388
  0
VERTEX
  8
GSLAYER
 10
3537.1556513449
 20
3608.1072803409
  0
VERTEX
  8
GSLAYER
 10
3536.7194305502
 20
3607.4190557045
  0
VERTEX
  8
GSLAYER
 10
3536.5330666796
 20
3607.0515629327
  0
VERTEX
  8
GSLAYER
 10
3536.3690429576
 20
3606.6780751727
  0
VERTEX
  8
GSLAYER
 10
3536.2273593841
 20
3606.2985924246
  0
VERTEX
  8
GSLAYER
 10
3536.1080159591
 20
3605.9131146884
  0
VERTEX
  8
GSLAYER
 10
3536.0133642772
 20
3605.5228409617
  0
VERTEX
  8
GSLAYER
 10
3535.945755933
 20
3605.1289702421
  0
VERTEX
  8
GSLAYER
 10
3535.9051909265
 20
3604.7315025296
  0
VERTEX
  8
GSLAYER
 10
3535.8916692577
 20
3604.3304378243
  0
VERTEX
  8
GSLAYER
 10
3535.9422285412
 20
3603.5666763376
  0
VERTEX
  8
GSLAYER
 10
3536.0939063916
 20
3602.8101088366
  0
VERTEX
  8
GSLAYER
 10
3536.3467028091
 20
3602.0607353214
  0
VERTEX
  8
GSLAYER
 10
3536.7006177935
 20
3601.318555792
  0
VERTEX
  8
GSLAYER
 10
3537.1509481558
 20
3600.6147441865
  0
VERTEX
  8
GSLAYER
 10
3537.67417795
 20
3599.9996584052
  0
VERTEX
  8
GSLAYER
 10
3538.2703071763
 20
3599.4732984482
  0
VERTEX
  8
GSLAYER
 10
3538.9393358346
 20
3599.0356643153
  0
VERTEX
  8
GSLAYER
 10
3539.2979540082
 20
3598.8534166764
  0
VERTEX
  8
GSLAYER
 10
3539.6589237764
 20
3598.6903529995
  0
VERTEX
  8
GSLAYER
 10
3540.0222451391
 20
3598.5464732846
  0
VERTEX
  8
GSLAYER
 10
3540.3879180965
 20
3598.4217775316
  0
VERTEX
  8
GSLAYER
 10
3540.758294243
 20
3598.3210617312
  0
VERTEX
  8
GSLAYER
 10
3541.1357251732
 20
3598.2491218737
  0
VERTEX
  8
GSLAYER
 10
3541.5202108872
 20
3598.2059579593
  0
VERTEX
  8
GSLAYER
 10
3541.9117513849
 20
3598.1915699878
  0
VERTEX
  8
GSLAYER
 10
3542.3038797813
 20
3598.2059579593
  0
VERTEX
  8
GSLAYER
 10
3542.6901291912
 20
3598.2491218737
  0
VERTEX
  8
GSLAYER
 10
3543.0704996147
 20
3598.3210617312
  0
VERTEX
  8
GSLAYER
 10
3543.4449910517
 20
3598.4217775316
  0
VERTEX
  8
GSLAYER
 10
3543.8147792996
 20
3598.5464732846
  0
VERTEX
  8
GSLAYER
 10
3544.1810401556
 20
3598.6903529995
  0
VERTEX
  8
GSLAYER
 10
3544.5437736197
 20
3598.8534166764
  0
VERTEX
  8
GSLAYER
 10
3544.9029796919
 20
3599.0356643153
  0
VERTEX
  8
GSLAYER
 10
3545.5708325529
 20
3599.4732984482
  0
VERTEX
  8
GSLAYER
 10
3546.1634343873
 20
3599.9996584052
  0
VERTEX
  8
GSLAYER
 10
3546.6807851951
 20
3600.6147441865
  0
VERTEX
  8
GSLAYER
 10
3547.1228849763
 20
3601.318555792
  0
VERTEX
  8
GSLAYER
 10
3547.4767999608
 20
3602.0607353214
  0
VERTEX
  8
GSLAYER
 10
3547.7295963782
 20
3602.8101088366
  0
VERTEX
  8
GSLAYER
 10
3547.8812742287
 20
3603.5666763376
  0
VERTEX
  8
GSLAYER
 10
3547.9318335122
 20
3604.3304378243
  0
VERTEX
  8
GSLAYER
 10
3547.8812742287
 20
3605.1205772587
  0
VERTEX
  8
GSLAYER
 10
3547.7295963782
 20
3605.8987267169
  0
VERTEX
  8
GSLAYER
 10
3547.4767999608
 20
3606.6648861988
  0
VERTEX
  8
GSLAYER
 10
3547.1228849763
 20
3607.4190557045
  0
VERTEX
  8
GSLAYER
 10
3546.9071261735
 20
3607.7739590013
  0
VERTEX
  8
GSLAYER
 10
3546.6737304114
 20
3608.1096783362
  0
VERTEX
  8
GSLAYER
 10
3546.4226976899
 20
3608.426213709
  0
VERTEX
  8
GSLAYER
 10
3546.154028009
 20
3608.7235651198
  0
VERTEX
  8
GSLAYER
 10
3545.8665455715
 20
3608.9993345734
  0
VERTEX
  8
GSLAYER
 10
3545.55907458
 20
3609.2511240745
  0
VERTEX
  8
GSLAYER
 10
3545.2316150346
 20
3609.4789336231
  0
VERTEX
  8
GSLAYER
 10
3544.8841669353
 20
3609.6827632193
  0
VERTEX
  8
GSLAYER
 10
3544.1410630477
 20
3610.0268755374
  0
VERTEX
  8
GSLAYER
 10
3543.3979591601
 20
3610.2726700504
  0
VERTEX
  8
GSLAYER
 10
3542.6548552725
 20
3610.4201467582
  0
VERTEX
  8
GSLAYER
 10
3541.9117513849
 20
3610.4693056608
  0
SEQEND
  0
POLYLINE
  8
GSLAYER
 70
128
 66
1
  0
VERTEX
  8
GSLAYER
 10
3542.1939427346
 20
3604.0426783945
  0
VERTEX
  8
GSLAYER
 10
3547.3674508128
 20
3604.0426783945
  0
VERTEX
  8
GSLAYER
 10
3547.3674508128
 20
3604.0043104705
  0
VERTEX
  8
GSLAYER
 10
3547.3027819618
 20
3603.3832297011
  0
VERTEX
  8
GSLAYER
 10
3547.1652136788
 20
3602.7669449222
  0
VERTEX
  8
GSLAYER
 10
3546.9547459638
 20
3602.1554561338
  0
VERTEX
  8
GSLAYER
 10
3546.6713788168
 20
3601.5487633359
  0
VERTEX
  8
GSLAYER
 10
3546.2622013597
 20
3600.9156925902
  0
VERTEX
  8
GSLAYER
 10
3545.7871792544
 20
3600.3593576925
  0
VERTEX
  8
GSLAYER
 10
3545.2463125007
 20
3599.8797586428
  0
VERTEX
  8
GSLAYER
 10
3544.6396010988
 20
3599.476895441
  0
VERTEX
  8
GSLAYER
 10
3544.0517024536
 20
3599.1879370136
  0
VERTEX
  8
GSLAYER
 10
3543.45439743
 20
3598.9733164388
  0
VERTEX
  8
GSLAYER
 10
3542.8476860282
 20
3598.8330337168
  0
VERTEX
  8
GSLAYER
 10
3542.2315682479
 20
3598.7670888474
  0
VERTEX
  8
GSLAYER
 10
3542.1939427346
 20
3598.7670888474
  0
VERTEX
  8
GSLAYER
 10
3542.1939427346
 20
3604.0426783945
  0
SEQEND
  0
POLYLINE
  8
GSLAYER
 70
128
 66
1
  0
VERTEX
  8
GSLAYER
 10
3541.6295600352
 20
3604.0426783945
  0
VERTEX
  8
GSLAYER
 10
3541.6295600352
 20
3598.7670888474
  0
VERTEX
  8
GSLAYER
 10
3541.5919345219
 20
3598.7670888474
  0
VERTEX
  8
GSLAYER
 10
3540.9828715255
 20
3598.8330337168
  0
VERTEX
  8
GSLAYER
 10
3540.3785117181
 20
3598.9733164388
  0
VERTEX
  8
GSLAYER
 10
3539.7788551
 20
3599.1879370136
  0
VERTEX
  8
GSLAYER
 10
3539.183901671
 20
3599.476895441
  0
VERTEX
  8
GSLAYER
 10
3538.5630807016
 20
3599.8941466143
  0
VERTEX
  8
GSLAYER
 10
3538.0175107589
 20
3600.3785416545
  0
VERTEX
  8
GSLAYER
 10
3537.5471918427
 20
3600.9300805617
  0
VERTEX
  8
GSLAYER
 10
3537.1521239531
 20
3601.5487633359
  0
VERTEX
  8
GSLAYER
 10
3536.8687568061
 20
3602.148262148
  0
VERTEX
  8
GSLAYER
 10
3536.6582890911
 20
3602.7573529412
  0
VERTEX
  8
GSLAYER
 10
3536.5207208081
 20
3603.3760357153
  0
VERTEX
  8
GSLAYER
 10
3536.4560519571
 20
3604.0043104705
  0
VERTEX
  8
GSLAYER
 10
3536.4560519571
 20
3604.0426783945
  0
VERTEX
  8
GSLAYER
 10
3541.6295600352
 20
3604.0426783945
  0
SEQEND
  0
POLYLINE
  8
GSLAYER
 70
128
 66
1
  0
VERTEX
  8
GSLAYER
 10
3542.1939427346
 20
3604.6181972541
  0
VERTEX
  8
GSLAYER
 10
3542.1939427346
 20
3609.8937868011
  0
VERTEX
  8
GSLAYER
 10
3542.2315682479
 20
3609.8937868011
  0
VERTEX
  8
GSLAYER
 10
3542.8406312444
 20
3609.8278419318
  0
VERTEX
  8
GSLAYER
 10
3543.4449910517
 20
3609.6875592098
  0
VERTEX
  8
GSLAYER
 10
3544.0446476699
 20
3609.472938635
  0
VERTEX
  8
GSLAYER
 10
3544.6396010988
 20
3609.1839802075
  0
VERTEX
  8
GSLAYER
 10
3545.2604220682
 20
3608.7667290343
  0
VERTEX
  8
GSLAYER
 10
3545.805992011
 20
3608.2823339941
  0
VERTEX
  8
GSLAYER
 10
3546.2763109272
 20
3607.7307950869
  0
VERTEX
  8
GSLAYER
 10
3546.6713788168
 20
3607.1121123127
  0
VERTEX
  8
GSLAYER
 10
3546.9547459638
 20
3606.5126135006
  0
VERTEX
  8
GSLAYER
 10
3547.1652136788
 20
3605.9035227074
  0
VERTEX
  8
GSLAYER
 10
3547.3027819618
 20
3605.2848399333
  0
VERTEX
  8
GSLAYER
 10
3547.3674508128
 20
3604.6565651781
  0
VERTEX
  8
GSLAYER
 10
3547.3674508128
 20
3604.6181972541
  0
VERTEX
  8
GSLAYER
 10
3542.1939427346
 20
3604.6181972541
  0
SEQEND
  0
POLYLINE
  8
GSLAYER
 70
128
 66
1
  0
VERTEX
  8
GSLAYER
 10
3541.6295600352
 20
3604.6181972541
  0
VERTEX
  8
GSLAYER
 10
3536.4560519571
 20
3604.6181972541
  0
VERTEX
  8
GSLAYER
 10
3536.4560519571
 20
3604.6565651781
  0
VERTEX
  8
GSLAYER
 10
3536.5207208081
 20
3605.2776459475
  0
VERTEX
  8
GSLAYER
 10
3536.6582890911
 20
3605.8939307264
  0
VERTEX
  8
GSLAYER
 10
3536.8687568061
 20
3606.5054195148
  0
VERTEX
  8
GSLAYER
 10
3537.1521239531
 20
3607.1121123127
  0
VERTEX
  8
GSLAYER
 10
3537.5613014102
 20
3607.7451830584
  0
VERTEX
  8
GSLAYER
 10
3538.0363235155
 20
3608.301517956
  0
VERTEX
  8
GSLAYER
 10
3538.5771902691
 20
3608.7811170058
  0
VERTEX
  8
GSLAYER
 10
3539.183901671
 20
3609.1839802075
  0
VERTEX
  8
GSLAYER
 10
3539.7718003163
 20
3609.472938635
  0
VERTEX
  8
GSLAYER
 10
3540.3691053398
 20
3609.6875592098
  0
VERTEX
  8
GSLAYER
 10
3540.9758167417
 20
3609.8278419318
  0
VERTEX
  8
GSLAYER
 10
3541.5919345219
 20
3609.8937868011
  0
VERTEX
  8
GSLAYER
 10
3541.6295600352
 20
3609.8937868011
  0
VERTEX
  8
GSLAYER
 10
3541.6295600352
 20
3604.6181972541
  0
SEQEND
  0
POLYLINE
  8
GSLAYER
 70
128
 66
1
  0
VERTEX
  8
GSLAYER
 10
3542.3130901934
 20
3603.4437124701
  0
VERTEX
  8
GSLAYER
 10
3541.5641073194
 20
3603.3945535675
  0
VERTEX
  8
GSLAYER
 10
3540.8221792291
 20
3603.2470768597
  0
VERTEX
  8
GSLAYER
 10
3540.0873059225
 20
3603.0012823467
  0
VERTEX
  8
GSLAYER
 10
3539.3594873997
 20
3602.6571700286
  0
VERTEX
  8
GSLAYER
 10
3538.676349174
 20
3602.2135409076
  0
VERTEX
  8
GSLAYER
 10
3538.0755167585
 20
3601.6883799481
  0
VERTEX
  8
GSLAYER
 10
3537.5569901534
 20
3601.0816871502
  0
VERTEX
  8
GSLAYER
 10
3537.1207693587
 20
3600.3934625138
  0
VERTEX
  8
GSLAYER
 10
3536.9344054881
 20
3600.025969742
  0
VERTEX
  8
GSLAYER
 10
3536.7703817661
 20
3599.652481982
  0
VERTEX
  8
GSLAYER
 10
3536.6286981926
 20
3599.2729992339
  0
VERTEX
  8
GSLAYER
 10
3536.5093547676
 20
3598.8875214977
  0
VERTEX
  8
GSLAYER
 10
3536.4147030857
 20
3598.497247771
  0
VERTEX
  8
GSLAYER
 10
3536.3470947415
 20
3598.1033770514
  0
VERTEX
  8
GSLAYER
 10
3536.306529735
 20
3597.7059093389
  0
VERTEX
  8
GSLAYER
 10
3536.2930080662
 20
3597.3048446336
  0
VERTEX
  8
GSLAYER
 10
3536.3435673497
 20
3596.5410831469
  0
VERTEX
  8
GSLAYER
 10
3536.4952452001
 20
3595.784515646
  0
VERTEX
  8
GSLAYER
 10
3536.7480416176
 20
3595.0351421308
  0
VERTEX
  8
GSLAYER
 10
3537.101956602
 20
3594.2929626013
  0
VERTEX
  8
GSLAYER
 10
3537.5522869643
 20
3593.5891509958
  0
VERTEX
  8
GSLAYER
 10
3538.0755167585
 20
3592.9740652145
  0
VERTEX
  8
GSLAYER
 10
3538.6716459848
 20
3592.4477052575
  0
VERTEX
  8
GSLAYER
 10
3539.3406746431
 20
3592.0100711246
  0
VERTEX
  8
GSLAYER
 10
3539.6992928167
 20
3591.8278234857
  0
VERTEX
  8
GSLAYER
 10
3540.0602625849
 20
3591.6647598088
  0
VERTEX
  8
GSLAYER
 10
3540.4235839476
 20
3591.5208800939
  0
VERTEX
  8
GSLAYER
 10
3540.789256905
 20
3591.3961843409
  0
VERTEX
  8
GSLAYER
 10
3541.1596330515
 20
3591.2954685405
  0
VERTEX
  8
GSLAYER
 10
3541.5370639817
 20
3591.223528683
  0
VERTEX
  8
GSLAYER
 10
3541.9215496957
 20
3591.1803647686
  0
VERTEX
  8
GSLAYER
 10
3542.3130901934
 20
3591.1659767971
  0
VERTEX
  8
GSLAYER
 10
3542.7052185898
 20
3591.1803647686
  0
VERTEX
  8
GSLAYER
 10
3543.0914679997
 20
3591.223528683
  0
VERTEX
  8
GSLAYER
 10
3543.4718384232
 20
3591.2954685405
  0
VERTEX
  8
GSLAYER
 10
3543.8463298602
 20
3591.3961843409
  0
VERTEX
  8
GSLAYER
 10
3544.2161181081
 20
3591.5208800939
  0
VERTEX
  8
GSLAYER
 10
3544.582378964
 20
3591.6647598088
  0
VERTEX
  8
GSLAYER
 10
3544.9451124282
 20
3591.8278234857
  0
VERTEX
  8
GSLAYER
 10
3545.3043185004
 20
3592.0100711246
  0
VERTEX
  8
GSLAYER
 10
3545.9721713614
 20
3592.4477052575
  0
VERTEX
  8
GSLAYER
 10
3546.5647731958
 20
3592.9740652145
  0
VERTEX
  8
GSLAYER
 10
3547.0821240036
 20
3593.5891509958
  0
VERTEX
  8
GSLAYER
 10
3547.5242237848
 20
3594.2929626013
  0
VERTEX
  8
GSLAYER
 10
3547.8781387693
 20
3595.0351421308
  0
VERTEX
  8
GSLAYER
 10
3548.1309351867
 20
3595.784515646
  0
VERTEX
  8
GSLAYER
 10
3548.2826130372
 20
3596.5410831469
  0
VERTEX
  8
GSLAYER
 10
3548.3331723207
 20
3597.3048446336
  0
VERTEX
  8
GSLAYER
 10
3548.2826130372
 20
3598.094984068
  0
VERTEX
  8
GSLAYER
 10
3548.1309351867
 20
3598.8731335262
  0
VERTEX
  8
GSLAYER
 10
3547.8781387693
 20
3599.6392930081
  0
VERTEX
  8
GSLAYER
 10
3547.5242237848
 20
3600.3934625138
  0
VERTEX
  8
GSLAYER
 10
3547.308464982
 20
3600.7483658106
  0
VERTEX
  8
GSLAYER
 10
3547.0750692199
 20
3601.0840851455
  0
VERTEX
  8
GSLAYER
 10
3546.8240364983
 20
3601.4006205183
  0
VERTEX
  8
GSLAYER
 10
3546.5553668175
 20
3601.6979719291
  0
VERTEX
  8
GSLAYER
 10
3546.2678843799
 20
3601.9737413827
  0
VERTEX
  8
GSLAYER
 10
3545.9604133885
 20
3602.2255308838
  0
VERTEX
  8
GSLAYER
 10
3545.6329538431
 20
3602.4533404324
  0
VERTEX
  8
GSLAYER
 10
3545.2855057437
 20
3602.6571700286
  0
VERTEX
  8
GSLAYER
 10
3544.5424018562
 20
3603.0012823467
  0
VERTEX
  8
GSLAYER
 10
3543.7992979686
 20
3603.2470768597
  0
VERTEX
  8
GSLAYER
 10
3543.056194081
 20
3603.3945535675
  0
VERTEX
  8
GSLAYER
 10
3542.3130901934
 20
3603.4437124701
  0
SEQEND
  0
POLYLINE
  8
GSLAYER
 70
128
 66
1
  0
VERTEX
  8
GSLAYER
 10
3542.5952815431
 20
3597.0170852038
  0
VERTEX
  8
GSLAYER
 10
3547.7687896212
 20
3597.0170852038
  0
VERTEX
  8
GSLAYER
 10
3547.7687896212
 20
3596.9787172798
  0
VERTEX
  8
GSLAYER
 10
3547.7041207703
 20
3596.3576365104
  0
VERTEX
  8
GSLAYER
 10
3547.5665524873
 20
3595.7413517315
  0
VERTEX
  8
GSLAYER
 10
3547.3560847723
 20
3595.1298629431
  0
VERTEX
  8
GSLAYER
 10
3547.0727176253
 20
3594.5231701452
  0
VERTEX
  8
GSLAYER
 10
3546.6635401682
 20
3593.8900993995
  0
VERTEX
  8
GSLAYER
 10
3546.1885180628
 20
3593.3337645018
  0
VERTEX
  8
GSLAYER
 10
3545.6476513092
 20
3592.8541654521
  0
VERTEX
  8
GSLAYER
 10
3545.0409399073
 20
3592.4513022503
  0
VERTEX
  8
GSLAYER
 10
3544.4530412621
 20
3592.1623438229
  0
VERTEX
  8
GSLAYER
 10
3543.8557362385
 20
3591.9477232481
  0
VERTEX
  8
GSLAYER
 10
3543.2490248366
 20
3591.8074405261
  0
VERTEX
  8
GSLAYER
 10
3542.6329070564
 20
3591.7414956567
  0
VERTEX
  8
GSLAYER
 10
3542.5952815431
 20
3591.7414956567
  0
VERTEX
  8
GSLAYER
 10
3542.5952815431
 20
3597.0170852038
  0
SEQEND
  0
POLYLINE
  8
GSLAYER
 70
128
 66
1
  0
VERTEX
  8
GSLAYER
 10
3542.0308988437
 20
3597.0170852038
  0
VERTEX
  8
GSLAYER
 10
3542.0308988437
 20
3591.7414956567
  0
VERTEX
  8
GSLAYER
 10
3541.9932733304
 20
3591.7414956567
  0
VERTEX
  8
GSLAYER
 10
3541.3842103339
 20
3591.8074405261
  0
VERTEX
  8
GSLAYER
 10
3540.7798505266
 20
3591.9477232481
  0
VERTEX
  8
GSLAYER
 10
3540.1801939085
 20
3592.1623438229
  0
VERTEX
  8
GSLAYER
 10
3539.5852404795
 20
3592.4513022503
  0
VERTEX
  8
GSLAYER
 10
3538.9644195101
 20
3592.8685534236
  0
VERTEX
  8
GSLAYER
 10
3538.4188495673
 20
3593.3529484638
  0
VERTEX
  8
GSLAYER
 10
3537.9485306512
 20
3593.904487371
  0
VERTEX
  8
GSLAYER
 10
3537.5534627616
 20
3594.5231701452
  0
VERTEX
  8
GSLAYER
 10
3537.2700956146
 20
3595.1226689573
  0
VERTEX
  8
GSLAYER
 10
3537.0596278996
 20
3595.7317597505
  0
VERTEX
  8
GSLAYER
 10
3536.9220596166
 20
3596.3504425246
  0
VERTEX
  8
GSLAYER
 10
3536.8573907656
 20
3596.9787172798
  0
VERTEX
  8
GSLAYER
 10
3536.8573907656
 20
3597.0170852038
  0
VERTEX
  8
GSLAYER
 10
3542.0308988437
 20
3597.0170852038
  0
SEQEND
  0
POLYLINE
  8
GSLAYER
 70
128
 66
1
  0
VERTEX
  8
GSLAYER
 10
3542.5952815431
 20
3597.5926040634
  0
VERTEX
  8
GSLAYER
 10
3542.5952815431
 20
3602.8681936104
  0
VERTEX
  8
GSLAYER
 10
3542.6329070564
 20
3602.8681936104
  0
VERTEX
  8
GSLAYER
 10
3543.2419700529
 20
3602.8022487411
  0
VERTEX
  8
GSLAYER
 10
3543.8463298602
 20
3602.6619660191
  0
VERTEX
  8
GSLAYER
 10
3544.4459864783
 20
3602.4473454443
  0
VERTEX
  8
GSLAYER
 10
3545.0409399073
 20
3602.1583870169
  0
VERTEX
  8
GSLAYER
 10
3545.6617608767
 20
3601.7411358436
  0
VERTEX
  8
GSLAYER
 10
3546.2073308195
 20
3601.2567408034
  0
VERTEX
  8
GSLAYER
 10
3546.6776497357
 20
3600.7052018962
  0
VERTEX
  8
GSLAYER
 10
3547.0727176253
 20
3600.086519122
  0
VERTEX
  8
GSLAYER
 10
3547.3560847723
 20
3599.4870203099
  0
VERTEX
  8
GSLAYER
 10
3547.5665524873
 20
3598.8779295167
  0
VERTEX
  8
GSLAYER
 10
3547.7041207703
 20
3598.2592467426
  0
VERTEX
  8
GSLAYER
 10
3547.7687896212
 20
3597.6309719874
  0
VERTEX
  8
GSLAYER
 10
3547.7687896212
 20
3597.5926040634
  0
VERTEX
  8
GSLAYER
 10
3542.5952815431
 20
3597.5926040634
  0
SEQEND
  0
POLYLINE
  8
GSLAYER
 70
128
 66
1
  0
VERTEX
  8
GSLAYER
 10
3542.0308988437
 20
3597.5926040634
  0
VERTEX
  8
GSLAYER
 10
3536.8573907656
 20
3597.5926040634
  0
VERTEX
  8
GSLAYER
 10
3536.8573907656
 20
3597.6309719874
  0
VERTEX
  8
GSLAYER
 10
3536.9220596166
 20
3598.2520527568
  0
VERTEX
  8
GSLAYER
 10
3537.0596278996
 20
3598.8683375357
  0
VERTEX
  8
GSLAYER
 10
3537.2700956146
 20
3599.4798263241
  0
VERTEX
  8
GSLAYER
 10
3537.5534627616
 20
3600.086519122
  0
VERTEX
  8
GSLAYER
 10
3537.9626402186
 20
3600.7195898677
  0
VERTEX
  8
GSLAYER
 10
3538.437662324
 20
3601.2759247653
  0
VERTEX
  8
GSLAYER
 10
3538.9785290776
 20
3601.7555238151
  0
VERTEX
  8
GSLAYER
 10
3539.5852404795
 20
3602.1583870169
  0
VERTEX
  8
GSLAYER
 10
3540.1731391247
 20
3602.4473454443
  0
VERTEX
  8
GSLAYER
 10
3540.7704441483
 20
3602.6619660191
  0
VERTEX
  8
GSLAYER
 10
3541.3771555502
 20
3602.8022487411
  0
VERTEX
  8
GSLAYER
 10
3541.9932733304
 20
3602.8681936104
  0
VERTEX
  8
GSLAYER
 10
3542.0308988437
 20
3602.8681936104
  0
VERTEX
  8
GSLAYER
 10
3542.0308988437
 20
3597.5926040634
  0
SEQEND
  0
POLYLINE
  8
GSLAYER
 70
128
 66
1
  0
VERTEX
  8
GSLAYER
 10
3543.1826576118
 20
3592.9394275054
  0
VERTEX
  8
GSLAYER
 10
3542.4336747378
 20
3592.8902686028
  0
VERTEX
  8
GSLAYER
 10
3541.6917466475
 20
3592.742791895
  0
VERTEX
  8
GSLAYER
 10
3540.9568733409
 20
3592.496997382
  0
VERTEX
  8
GSLAYER
 10
3540.2290548181
 20
3592.1528850638
  0
VERTEX
  8
GSLAYER
 10
3539.5459165923
 20
3591.7092559428
  0
VERTEX
  8
GSLAYER
 10
3538.9450841769
 20
3591.1840949834
  0
VERTEX
  8
GSLAYER
 10
3538.4265575718
 20
3590.5774021855
  0
VERTEX
  8
GSLAYER
 10
3537.990336777
 20
3589.8891775491
  0
VERTEX
  8
GSLAYER
 10
3537.8039729065
 20
3589.5216847773
  0
VERTEX
  8
GSLAYER
 10
3537.6399491845
 20
3589.1481970173
  0
VERTEX
  8
GSLAYER
 10
3537.498265611
 20
3588.7687142692
  0
VERTEX
  8
GSLAYER
 10
3537.378922186
 20
3588.383236533
  0
VERTEX
  8
GSLAYER
 10
3537.2842705041
 20
3587.9929628063
  0
VERTEX
  8
GSLAYER
 10
3537.2166621599
 20
3587.5990920867
  0
VERTEX
  8
GSLAYER
 10
3537.1760971534
 20
3587.2016243742
  0
VERTEX
  8
GSLAYER
 10
3537.1625754845
 20
3586.8005596689
  0
VERTEX
  8
GSLAYER
 10
3537.213134768
 20
3586.0367981822
  0
VERTEX
  8
GSLAYER
 10
3537.3648126185
 20
3585.2802306812
  0
VERTEX
  8
GSLAYER
 10
3537.617609036
 20
3584.530857166
  0
VERTEX
  8
GSLAYER
 10
3537.9715240204
 20
3583.7886776366
  0
VERTEX
  8
GSLAYER
 10
3538.4218543826
 20
3583.0848660311
  0
VERTEX
  8
GSLAYER
 10
3538.9450841769
 20
3582.4697802498
  0
VERTEX
  8
GSLAYER
 10
3539.5412134032
 20
3581.9434202927
  0
VERTEX
  8
GSLAYER
 10
3540.2102420615
 20
3581.5057861599
  0
VERTEX
  8
GSLAYER
 10
3540.5688602351
 20
3581.323538521
  0
VERTEX
  8
GSLAYER
 10
3540.9298300032
 20
3581.1604748441
  0
VERTEX
  8
GSLAYER
 10
3541.293151366
 20
3581.0165951291
  0
VERTEX
  8
GSLAYER
 10
3541.6588243233
 20
3580.8918993762
  0
VERTEX
  8
GSLAYER
 10
3542.0292004698
 20
3580.7911835758
  0
VERTEX
  8
GSLAYER
 10
3542.4066314001
 20
3580.7192437183
  0
VERTEX
  8
GSLAYER
 10
3542.7911171141
 20
3580.6760798038
  0
VERTEX
  8
GSLAYER
 10
3543.1826576118
 20
3580.6616918323
  0
VERTEX
  8
GSLAYER
 10
3543.5747860082
 20
3580.6760798038
  0
VERTEX
  8
GSLAYER
 10
3543.9610354181
 20
3580.7192437183
  0
VERTEX
  8
GSLAYER
 10
3544.3414058416
 20
3580.7911835758
  0
VERTEX
  8
GSLAYER
 10
3544.7158972786
 20
3580.8918993762
  0
VERTEX
  8
GSLAYER
 10
3545.0856855264
 20
3581.0165951291
  0
VERTEX
  8
GSLAYER
 10
3545.4519463824
 20
3581.1604748441
  0
VERTEX
  8
GSLAYER
 10
3545.8146798465
 20
3581.323538521
  0
VERTEX
  8
GSLAYER
 10
3546.1738859188
 20
3581.5057861599
  0
VERTEX
  8
GSLAYER
 10
3546.8417387798
 20
3581.9434202927
  0
VERTEX
  8
GSLAYER
 10
3547.4343406142
 20
3582.4697802498
  0
VERTEX
  8
GSLAYER
 10
3547.951691422
 20
3583.0848660311
  0
VERTEX
  8
GSLAYER
 10
3548.3937912032
 20
3583.7886776366
  0
VERTEX
  8
GSLAYER
 10
3548.7477061876
 20
3584.530857166
  0
VERTEX
  8
GSLAYER
 10
3549.0005026051
 20
3585.2802306812
  0
VERTEX
  8
GSLAYER
 10
3549.1521804556
 20
3586.0367981822
  0
VERTEX
  8
GSLAYER
 10
3549.2027397391
 20
3586.8005596689
  0
VERTEX
  8
GSLAYER
 10
3549.1521804556
 20
3587.5906991033
  0
VERTEX
  8
GSLAYER
 10
3549.0005026051
 20
3588.3688485615
  0
VERTEX
  8
GSLAYER
 10
3548.7477061876
 20
3589.1350080434
  0
VERTEX
  8
GSLAYER
 10
3548.3937912032
 20
3589.8891775491
  0
VERTEX
  8
GSLAYER
 10
3548.1780324004
 20
3590.2440808459
  0
VERTEX
  8
GSLAYER
 10
3547.9446366382
 20
3590.5798001807
  0
VERTEX
  8
GSLAYER
 10
3547.6936039167
 20
3590.8963355536
  0
VERTEX
  8
GSLAYER
 10
3547.4249342358
 20
3591.1936869644
  0
VERTEX
  8
GSLAYER
 10
3547.1374517983
 20
3591.469456418
  0
VERTEX
  8
GSLAYER
 10
3546.8299808069
 20
3591.7212459191
  0
VERTEX
  8
GSLAYER
 10
3546.5025212615
 20
3591.9490554677
  0
VERTEX
  8
GSLAYER
 10
3546.1550731621
 20
3592.1528850638
  0
VERTEX
  8
GSLAYER
 10
3545.4119692745
 20
3592.496997382
  0
VERTEX
  8
GSLAYER
 10
3544.668865387
 20
3592.742791895
  0
VERTEX
  8
GSLAYER
 10
3543.9257614994
 20
3592.8902686028
  0
VERTEX
  8
GSLAYER
 10
3543.1826576118
 20
3592.9394275054
  0
SEQEND
  0
POLYLINE
  8
GSLAYER
 70
128
 66
1
  0
VERTEX
  8
GSLAYER
 10
3543.4648489615
 20
3586.512800239
  0
VERTEX
  8
GSLAYER
 10
3548.6383570396
 20
3586.512800239
  0
VERTEX
  8
GSLAYER
 10
3548.6383570396
 20
3586.474432315
  0
VERTEX
  8
GSLAYER
 10
3548.5736881886
 20
3585.8533515457
  0
VERTEX
  8
GSLAYER
 10
3548.4361199057
 20
3585.2370667667
  0
VERTEX
  8
GSLAYER
 10
3548.2256521907
 20
3584.6255779783
  0
VERTEX
  8
GSLAYER
 10
3547.9422850437
 20
3584.0188851804
  0
VERTEX
  8
GSLAYER
 10
3547.5331075866
 20
3583.3858144348
  0
VERTEX
  8
GSLAYER
 10
3547.0580854812
 20
3582.8294795371
  0
VERTEX
  8
GSLAYER
 10
3546.5172187276
 20
3582.3498804874
  0
VERTEX
  8
GSLAYER
 10
3545.9105073257
 20
3581.9470172856
  0
VERTEX
  8
GSLAYER
 10
3545.3226086805
 20
3581.6580588581
  0
VERTEX
  8
GSLAYER
 10
3544.7253036569
 20
3581.4434382834
  0
VERTEX
  8
GSLAYER
 10
3544.118592255
 20
3581.3031555613
  0
VERTEX
  8
GSLAYER
 10
3543.5024744748
 20
3581.237210692
  0
VERTEX
  8
GSLAYER
 10
3543.4648489615
 20
3581.237210692
  0
VERTEX
  8
GSLAYER
 10
3543.4648489615
 20
3586.512800239
  0
SEQEND
  0
POLYLINE
  8
GSLAYER
 70
128
 66
1
  0
VERTEX
  8
GSLAYER
 10
3542.9004662621
 20
3586.512800239
  0
VERTEX
  8
GSLAYER
 10
3542.9004662621
 20
3581.237210692
  0
VERTEX
  8
GSLAYER
 10
3542.8628407488
 20
3581.237210692
  0
VERTEX
  8
GSLAYER
 10
3542.2537777523
 20
3581.3031555613
  0
VERTEX
  8
GSLAYER
 10
3541.649417945
 20
3581.4434382834
  0
VERTEX
  8
GSLAYER
 10
3541.0497613269
 20
3581.6580588581
  0
VERTEX
  8
GSLAYER
 10
3540.4548078979
 20
3581.9470172856
  0
VERTEX
  8
GSLAYER
 10
3539.8339869285
 20
3582.3642684589
  0
VERTEX
  8
GSLAYER
 10
3539.2884169857
 20
3582.8486634991
  0
VERTEX
  8
GSLAYER
 10
3538.8180980695
 20
3583.4002024063
  0
VERTEX
  8
GSLAYER
 10
3538.4230301799
 20
3584.0188851804
  0
VERTEX
  8
GSLAYER
 10
3538.1396630329
 20
3584.6183839926
  0
VERTEX
  8
GSLAYER
 10
3537.9291953179
 20
3585.2274747858
  0
VERTEX
  8
GSLAYER
 10
3537.7916270349
 20
3585.8461575599
  0
VERTEX
  8
GSLAYER
 10
3537.726958184
 20
3586.474432315
  0
VERTEX
  8
GSLAYER
 10
3537.726958184
 20
3586.512800239
  0
VERTEX
  8
GSLAYER
 10
3542.9004662621
 20
3586.512800239
  0
SEQEND
  0
POLYLINE
  8
GSLAYER
 70
128
 66
1
  0
VERTEX
  8
GSLAYER
 10
3543.4648489615
 20
3587.0883190987
  0
VERTEX
  8
GSLAYER
 10
3543.4648489615
 20
3592.3639086457
  0
VERTEX
  8
GSLAYER
 10
3543.5024744748
 20
3592.3639086457
  0
VERTEX
  8
GSLAYER
 10
3544.1115374713
 20
3592.2979637764
  0
VERTEX
  8
GSLAYER
 10
3544.7158972786
 20
3592.1576810543
  0
VERTEX
  8
GSLAYER
 10
3545.3155538967
 20
3591.9430604796
  0
VERTEX
  8
GSLAYER
 10
3545.9105073257
 20
3591.6541020521
  0
VERTEX
  8
GSLAYER
 10
3546.5313282951
 20
3591.2368508789
  0
VERTEX
  8
GSLAYER
 10
3547.0768982379
 20
3590.7524558386
  0
VERTEX
  8
GSLAYER
 10
3547.5472171541
 20
3590.2009169314
  0
VERTEX
  8
GSLAYER
 10
3547.9422850437
 20
3589.5822341573
  0
VERTEX
  8
GSLAYER
 10
3548.2256521907
 20
3588.9827353451
  0
VERTEX
  8
GSLAYER
 10
3548.4361199057
 20
3588.373644552
  0
VERTEX
  8
GSLAYER
 10
3548.5736881886
 20
3587.7549617778
  0
VERTEX
  8
GSLAYER
 10
3548.6383570396
 20
3587.1266870227
  0
VERTEX
  8
GSLAYER
 10
3548.6383570396
 20
3587.0883190987
  0
VERTEX
  8
GSLAYER
 10
3543.4648489615
 20
3587.0883190987
  0
SEQEND
  0
POLYLINE
  8
GSLAYER
 70
128
 66
1
  0
VERTEX
  8
GSLAYER
 10
3542.9004662621
 20
3587.0883190987
  0
VERTEX
  8
GSLAYER
 10
3537.726958184
 20
3587.0883190987
  0
VERTEX
  8
GSLAYER
 10
3537.726958184
 20
3587.1266870227
  0
VERTEX
  8
GSLAYER
 10
3537.7916270349
 20
3587.7477677921
  0
VERTEX
  8
GSLAYER
 10
3537.9291953179
 20
3588.364052571
  0
VERTEX
  8
GSLAYER
 10
3538.1396630329
 20
3588.9755413594
  0
VERTEX
  8
GSLAYER
 10
3538.4230301799
 20
3589.5822341573
  0
VERTEX
  8
GSLAYER
 10
3538.832207637
 20
3590.2153049029
  0
VERTEX
  8
GSLAYER
 10
3539.3072297424
 20
3590.7716398006
  0
VERTEX
  8
GSLAYER
 10
3539.848096496
 20
3591.2512388503
  0
VERTEX
  8
GSLAYER
 10
3540.4548078979
 20
3591.6541020521
  0
VERTEX
  8
GSLAYER
 10
3541.0427065431
 20
3591.9430604796
  0
VERTEX
  8
GSLAYER
 10
3541.6400115667
 20
3592.1576810543
  0
VERTEX
  8
GSLAYER
 10
3542.2467229686
 20
3592.2979637764
  0
VERTEX
  8
GSLAYER
 10
3542.8628407488
 20
3592.3639086457
  0
VERTEX
  8
GSLAYER
 10
3542.9004662621
 20
3592.3639086457
  0
VERTEX
  8
GSLAYER
 10
3542.9004662621
 20
3587.0883190987
  0
SEQEND
  0
POLYLINE
  8
GSLAYER
 70
128
 66
1
  0
VERTEX
  8
GSLAYER
 10
3737.2299715137
 20
3704.7350317729
  0
VERTEX
  8
GSLAYER
 10
3736.4809886396
 20
3704.6858728703
  0
VERTEX
  8
GSLAYER
 10
3735.7390605493
 20
3704.5383961625
  0
VERTEX
  8
GSLAYER
 10
3735.0041872428
 20
3704.2926016495
  0
VERTEX
  8
GSLAYER
 10
3734.27636872
 20
3703.9484893313
  0
VERTEX
  8
GSLAYER
 10
3733.5932304942
 20
3703.5048602103
  0
VERTEX
  8
GSLAYER
 10
3732.9923980788
 20
3702.9796992509
  0
VERTEX
  8
GSLAYER
 10
3732.4738714737
 20
3702.373006453
  0
VERTEX
  8
GSLAYER
 10
3732.0376506789
 20
3701.6847818166
  0
VERTEX
  8
GSLAYER
 10
3731.8512868084
 20
3701.3172890447
  0
VERTEX
  8
GSLAYER
 10
3731.6872630863
 20
3700.9438012848
  0
VERTEX
  8
GSLAYER
 10
3731.5455795128
 20
3700.5643185367
  0
VERTEX
  8
GSLAYER
 10
3731.4262360879
 20
3700.1788408004
  0
VERTEX
  8
GSLAYER
 10
3731.331584406
 20
3699.7885670737
  0
VERTEX
  8
GSLAYER
 10
3731.2639760618
 20
3699.3946963541
  0
VERTEX
  8
GSLAYER
 10
3731.2234110553
 20
3698.9972286417
  0
VERTEX
  8
GSLAYER
 10
3731.2098893864
 20
3698.5961639363
  0
VERTEX
  8
GSLAYER
 10
3731.2604486699
 20
3697.8324024496
  0
VERTEX
  8
GSLAYER
 10
3731.4121265204
 20
3697.0758349487
  0
VERTEX
  8
GSLAYER
 10
3731.6649229378
 20
3696.3264614335
  0
VERTEX
  8
GSLAYER
 10
3732.0188379223
 20
3695.584281904
  0
VERTEX
  8
GSLAYER
 10
3732.4691682845
 20
3694.8804702986
  0
VERTEX
  8
GSLAYER
 10
3732.9923980788
 20
3694.2653845173
  0
VERTEX
  8
GSLAYER
 10
3733.5885273051
 20
3693.7390245602
  0
VERTEX
  8
GSLAYER
 10
3734.2575559633
 20
3693.3013904273
  0
VERTEX
  8
GSLAYER
 10
3734.6161741369
 20
3693.1191427884
  0
VERTEX
  8
GSLAYER
 10
3734.9771439051
 20
3692.9560791115
  0
VERTEX
  8
GSLAYER
 10
3735.3404652679
 20
3692.8121993966
  0
VERTEX
  8
GSLAYER
 10
3735.7061382252
 20
3692.6875036437
  0
VERTEX
  8
GSLAYER
 10
3736.0765143717
 20
3692.5867878432
  0
VERTEX
  8
GSLAYER
 10
3736.453945302
 20
3692.5148479858
  0
VERTEX
  8
GSLAYER
 10
3736.8384310159
 20
3692.4716840713
  0
VERTEX
  8
GSLAYER
 10
3737.2299715137
 20
3692.4572960998
  0
VERTEX
  8
GSLAYER
 10
3737.62209991
 20
3692.4716840713
  0
VERTEX
  8
GSLAYER
 10
3738.00834932
 20
3692.5148479858
  0
VERTEX
  8
GSLAYER
 10
3738.3887197434
 20
3692.5867878432
  0
VERTEX
  8
GSLAYER
 10
3738.7632111805
 20
3692.6875036437
  0
VERTEX
  8
GSLAYER
 10
3739.1329994283
 20
3692.8121993966
  0
VERTEX
  8
GSLAYER
 10
3739.4992602843
 20
3692.9560791115
  0
VERTEX
  8
GSLAYER
 10
3739.8619937484
 20
3693.1191427884
  0
VERTEX
  8
GSLAYER
 10
3740.2211998206
 20
3693.3013904273
  0
VERTEX
  8
GSLAYER
 10
3740.8890526816
 20
3693.7390245602
  0
VERTEX
  8
GSLAYER
 10
3741.481654516
 20
3694.2653845173
  0
VERTEX
  8
GSLAYER
 10
3741.9990053239
 20
3694.8804702986
  0
VERTEX
  8
GSLAYER
 10
3742.4411051051
 20
3695.584281904
  0
VERTEX
  8
GSLAYER
 10
3742.7950200895
 20
3696.3264614335
  0
VERTEX
  8
GSLAYER
 10
3743.047816507
 20
3697.0758349487
  0
VERTEX
  8
GSLAYER
 10
3743.1994943574
 20
3697.8324024496
  0
VERTEX
  8
GSLAYER
 10
3743.2500536409
 20
3698.5961639363
  0
VERTEX
  8
GSLAYER
 10
3743.1994943574
 20
3699.3863033708
  0
VERTEX
  8
GSLAYER
 10
3743.047816507
 20
3700.164452829
  0
VERTEX
  8
GSLAYER
 10
3742.7950200895
 20
3700.9306123109
  0
VERTEX
  8
GSLAYER
 10
3742.4411051051
 20
3701.6847818166
  0
VERTEX
  8
GSLAYER
 10
3742.2253463023
 20
3702.0396851134
  0
VERTEX
  8
GSLAYER
 10
3741.9919505401
 20
3702.3754044482
  0
VERTEX
  8
GSLAYER
 10
3741.7409178186
 20
3702.691939821
  0
VERTEX
  8
GSLAYER
 10
3741.4722481377
 20
3702.9892912319
  0
VERTEX
  8
GSLAYER
 10
3741.1847657002
 20
3703.2650606854
  0
VERTEX
  8
GSLAYER
 10
3740.8772947087
 20
3703.5168501866
  0
VERTEX
  8
GSLAYER
 10
3740.5498351633
 20
3703.7446597352
  0
VERTEX
  8
GSLAYER
 10
3740.202387064
 20
3703.9484893313
  0
VERTEX
  8
GSLAYER
 10
3739.4592831764
 20
3704.2926016495
  0
VERTEX
  8
GSLAYER
 10
3738.7161792888
 20
3704.5383961625
  0
VERTEX
  8
GSLAYER
 10
3737.9730754013
 20
3704.6858728703
  0
VERTEX
  8
GSLAYER
 10
3737.2299715137
 20
3704.7350317729
  0
SEQEND
  0
POLYLINE
  8
GSLAYER
 70
128
 66
1
  0
VERTEX
  8
GSLAYER
 10
3737.5121628634
 20
3698.3084045065
  0
VERTEX
  8
GSLAYER
 10
3742.6856709415
 20
3698.3084045065
  0
VERTEX
  8
GSLAYER
 10
3742.6856709415
 20
3698.2700365825
  0
VERTEX
  8
GSLAYER
 10
3742.6210020905
 20
3697.6489558131
  0
VERTEX
  8
GSLAYER
 10
3742.4834338075
 20
3697.0326710342
  0
VERTEX
  8
GSLAYER
 10
3742.2729660925
 20
3696.4211822458
  0
VERTEX
  8
GSLAYER
 10
3741.9895989455
 20
3695.8144894479
  0
VERTEX
  8
GSLAYER
 10
3741.5804214884
 20
3695.1814187023
  0
VERTEX
  8
GSLAYER
 10
3741.1053993831
 20
3694.6250838046
  0
VERTEX
  8
GSLAYER
 10
3740.5645326295
 20
3694.1454847549
  0
VERTEX
  8
GSLAYER
 10
3739.9578212276
 20
3693.7426215531
  0
VERTEX
  8
GSLAYER
 10
3739.3699225823
 20
3693.4536631256
  0
VERTEX
  8
GSLAYER
 10
3738.7726175588
 20
3693.2390425509
  0
VERTEX
  8
GSLAYER
 10
3738.1659061569
 20
3693.0987598288
  0
VERTEX
  8
GSLAYER
 10
3737.5497883767
 20
3693.0328149595
  0
VERTEX
  8
GSLAYER
 10
3737.5121628634
 20
3693.0328149595
  0
VERTEX
  8
GSLAYER
 10
3737.5121628634
 20
3698.3084045065
  0
SEQEND
  0
POLYLINE
  8
GSLAYER
 70
128
 66
1
  0
VERTEX
  8
GSLAYER
 10
3736.947780164
 20
3698.3084045065
  0
VERTEX
  8
GSLAYER
 10
3736.947780164
 20
3693.0328149595
  0
VERTEX
  8
GSLAYER
 10
3736.9101546507
 20
3693.0328149595
  0
VERTEX
  8
GSLAYER
 10
3736.3010916542
 20
3693.0987598288
  0
VERTEX
  8
GSLAYER
 10
3735.6967318469
 20
3693.2390425509
  0
VERTEX
  8
GSLAYER
 10
3735.0970752287
 20
3693.4536631256
  0
VERTEX
  8
GSLAYER
 10
3734.5021217998
 20
3693.7426215531
  0
VERTEX
  8
GSLAYER
 10
3733.8813008304
 20
3694.1598727263
  0
VERTEX
  8
GSLAYER
 10
3733.3357308876
 20
3694.6442677666
  0
VERTEX
  8
GSLAYER
 10
3732.8654119714
 20
3695.1958066738
  0
VERTEX
  8
GSLAYER
 10
3732.4703440818
 20
3695.8144894479
  0
VERTEX
  8
GSLAYER
 10
3732.1869769348
 20
3696.4139882601
  0
VERTEX
  8
GSLAYER
 10
3731.9765092198
 20
3697.0230790532
  0
VERTEX
  8
GSLAYER
 10
3731.8389409368
 20
3697.6417618274
  0
VERTEX
  8
GSLAYER
 10
3731.7742720858
 20
3698.2700365825
  0
VERTEX
  8
GSLAYER
 10
3731.7742720858
 20
3698.3084045065
  0
VERTEX
  8
GSLAYER
 10
3736.947780164
 20
3698.3084045065
  0
SEQEND
  0
POLYLINE
  8
GSLAYER
 70
128
 66
1
  0
VERTEX
  8
GSLAYER
 10
3737.5121628634
 20
3698.8839233662
  0
VERTEX
  8
GSLAYER
 10
3737.5121628634
 20
3704.1595129132
  0
VERTEX
  8
GSLAYER
 10
3737.5497883767
 20
3704.1595129132
  0
VERTEX
  8
GSLAYER
 10
3738.1588513731
 20
3704.0935680439
  0
VERTEX
  8
GSLAYER
 10
3738.7632111805
 20
3703.9532853218
  0
VERTEX
  8
GSLAYER
 10
3739.3628677986
 20
3703.7386647471
  0
VERTEX
  8
GSLAYER
 10
3739.9578212276
 20
3703.4497063196
  0
VERTEX
  8
GSLAYER
 10
3740.578642197
 20
3703.0324551463
  0
VERTEX
  8
GSLAYER
 10
3741.1242121397
 20
3702.5480601061
  0
VERTEX
  8
GSLAYER
 10
3741.5945310559
 20
3701.9965211989
  0
VERTEX
  8
GSLAYER
 10
3741.9895989455
 20
3701.3778384248
  0
VERTEX
  8
GSLAYER
 10
3742.2729660925
 20
3700.7783396126
  0
VERTEX
  8
GSLAYER
 10
3742.4834338075
 20
3700.1692488194
  0
VERTEX
  8
GSLAYER
 10
3742.6210020905
 20
3699.5505660453
  0
VERTEX
  8
GSLAYER
 10
3742.6856709415
 20
3698.9222912902
  0
VERTEX
  8
GSLAYER
 10
3742.6856709415
 20
3698.8839233662
  0
VERTEX
  8
GSLAYER
 10
3737.5121628634
 20
3698.8839233662
  0
SEQEND
  0
POLYLINE
  8
GSLAYER
 70
128
 66
1
  0
VERTEX
  8
GSLAYER
 10
3736.947780164
 20
3698.8839233662
  0
VERTEX
  8
GSLAYER
 10
3731.7742720858
 20
3698.8839233662
  0
VERTEX
  8
GSLAYER
 10
3731.7742720858
 20
3698.9222912902
  0
VERTEX
  8
GSLAYER
 10
3731.8389409368
 20
3699.5433720596
  0
VERTEX
  8
GSLAYER
 10
3731.9765092198
 20
3700.1596568385
  0
VERTEX
  8
GSLAYER
 10
3732.1869769348
 20
3700.7711456269
  0
VERTEX
  8
GSLAYER
 10
3732.4703440818
 20
3701.3778384248
  0
VERTEX
  8
GSLAYER
 10
3732.8795215389
 20
3702.0109091704
  0
VERTEX
  8
GSLAYER
 10
3733.3545436442
 20
3702.5672440681
  0
VERTEX
  8
GSLAYER
 10
3733.8954103979
 20
3703.0468431178
  0
VERTEX
  8
GSLAYER
 10
3734.5021217998
 20
3703.4497063196
  0
VERTEX
  8
GSLAYER
 10
3735.090020445
 20
3703.7386647471
  0
VERTEX
  8
GSLAYER
 10
3735.6873254686
 20
3703.9532853218
  0
VERTEX
  8
GSLAYER
 10
3736.2940368704
 20
3704.0935680439
  0
VERTEX
  8
GSLAYER
 10
3736.9101546507
 20
3704.1595129132
  0
VERTEX
  8
GSLAYER
 10
3736.947780164
 20
3704.1595129132
  0
VERTEX
  8
GSLAYER
 10
3736.947780164
 20
3698.8839233662
  0
SEQEND
  0
POLYLINE
  8
GSLAYER
 70
128
 66
1
  0
VERTEX
  8
GSLAYER
 10
3737.2299715137
 20
3704.7350317729
  0
VERTEX
  8
GSLAYER
 10
3736.4809886396
 20
3704.6858728703
  0
VERTEX
  8
GSLAYER
 10
3735.7390605493
 20
3704.5383961625
  0
VERTEX
  8
GSLAYER
 10
3735.0041872428
 20
3704.2926016495
  0
VERTEX
  8
GSLAYER
 10
3734.27636872
 20
3703.9484893313
  0
VERTEX
  8
GSLAYER
 10
3733.5932304942
 20
3703.5048602103
  0
VERTEX
  8
GSLAYER
 10
3732.9923980788
 20
3702.9796992509
  0
VERTEX
  8
GSLAYER
 10
3732.4738714737
 20
3702.373006453
  0
VERTEX
  8
GSLAYER
 10
3732.0376506789
 20
3701.6847818166
  0
VERTEX
  8
GSLAYER
 10
3731.8512868084
 20
3701.3172890447
  0
VERTEX
  8
GSLAYER
 10
3731.6872630863
 20
3700.9438012848
  0
VERTEX
  8
GSLAYER
 10
3731.5455795128
 20
3700.5643185367
  0
VERTEX
  8
GSLAYER
 10
3731.4262360879
 20
3700.1788408004
  0
VERTEX
  8
GSLAYER
 10
3731.331584406
 20
3699.7885670737
  0
VERTEX
  8
GSLAYER
 10
3731.2639760618
 20
3699.3946963541
  0
VERTEX
  8
GSLAYER
 10
3731.2234110553
 20
3698.9972286417
  0
VERTEX
  8
GSLAYER
 10
3731.2098893864
 20
3698.5961639363
  0
VERTEX
  8
GSLAYER
 10
3731.2604486699
 20
3697.8324024496
  0
VERTEX
  8
GSLAYER
 10
3731.4121265204
 20
3697.0758349487
  0
VERTEX
  8
GSLAYER
 10
3731.6649229378
 20
3696.3264614335
  0
VERTEX
  8
GSLAYER
 10
3732.0188379223
 20
3695.584281904
  0
VERTEX
  8
GSLAYER
 10
3732.4691682845
 20
3694.8804702986
  0
VERTEX
  8
GSLAYER
 10
3732.9923980788
 20
3694.2653845173
  0
VERTEX
  8
GSLAYER
 10
3733.5885273051
 20
3693.7390245602
  0
VERTEX
  8
GSLAYER
 10
3734.2575559633
 20
3693.3013904273
  0
VERTEX
  8
GSLAYER
 10
3734.6161741369
 20
3693.1191427884
  0
VERTEX
  8
GSLAYER
 10
3734.9771439051
 20
3692.9560791115
  0
VERTEX
  8
GSLAYER
 10
3735.3404652679
 20
3692.8121993966
  0
VERTEX
  8
GSLAYER
 10
3735.7061382252
 20
3692.6875036437
  0
VERTEX
  8
GSLAYER
 10
3736.0765143717
 20
3692.5867878432
  0
VERTEX
  8
GSLAYER
 10
3736.453945302
 20
3692.5148479858
  0
VERTEX
  8
GSLAYER
 10
3736.8384310159
 20
3692.4716840713
  0
VERTEX
  8
GSLAYER
 10
3737.2299715137
 20
3692.4572960998
  0
VERTEX
  8
GSLAYER
 10
3737.62209991
 20
3692.4716840713
  0
VERTEX
  8
GSLAYER
 10
3738.00834932
 20
3692.5148479858
  0
VERTEX
  8
GSLAYER
 10
3738.3887197434
 20
3692.5867878432
  0
VERTEX
  8
GSLAYER
 10
3738.7632111805
 20
3692.6875036437
  0
VERTEX
  8
GSLAYER
 10
3739.1329994283
 20
3692.8121993966
  0
VERTEX
  8
GSLAYER
 10
3739.4992602843
 20
3692.9560791115
  0
VERTEX
  8
GSLAYER
 10
3739.8619937484
 20
3693.1191427884
  0
VERTEX
  8
GSLAYER
 10
3740.2211998206
 20
3693.3013904273
  0
VERTEX
  8
GSLAYER
 10
3740.8890526816
 20
3693.7390245602
  0
VERTEX
  8
GSLAYER
 10
3741.481654516
 20
3694.2653845173
  0
VERTEX
  8
GSLAYER
 10
3741.9990053239
 20
3694.8804702986
  0
VERTEX
  8
GSLAYER
 10
3742.4411051051
 20
3695.584281904
  0
VERTEX
  8
GSLAYER
 10
3742.7950200895
 20
3696.3264614335
  0
VERTEX
  8
GSLAYER
 10
3743.047816507
 20
3697.0758349487
  0
VERTEX
  8
GSLAYER
 10
3743.1994943574
 20
3697.8324024496
  0
VERTEX
  8
GSLAYER
 10
3743.2500536409
 20
3698.5961639363
  0
VERTEX
  8
GSLAYER
 10
3743.1994943574
 20
3699.3863033708
  0
VERTEX
  8
GSLAYER
 10
3743.047816507
 20
3700.164452829
  0
VERTEX
  8
GSLAYER
 10
3742.7950200895
 20
3700.9306123109
  0
VERTEX
  8
GSLAYER
 10
3742.4411051051
 20
3701.6847818166
  0
VERTEX
  8
GSLAYER
 10
3742.2253463023
 20
3702.0396851134
  0
VERTEX
  8
GSLAYER
 10
3741.9919505401
 20
3702.3754044482
  0
VERTEX
  8
GSLAYER
 10
3741.7409178186
 20
3702.691939821
  0
VERTEX
  8
GSLAYER
 10
3741.4722481377
 20
3702.9892912319
  0
VERTEX
  8
GSLAYER
 10
3741.1847657002
 20
3703.2650606854
  0
VERTEX
  8
GSLAYER
 10
3740.8772947087
 20
3703.5168501866
  0
VERTEX
  8
GSLAYER
 10
3740.5498351633
 20
3703.7446597352
  0
VERTEX
  8
GSLAYER
 10
3740.202387064
 20
3703.9484893313
  0
VERTEX
  8
GSLAYER
 10
3739.4592831764
 20
3704.2926016495
  0
VERTEX
  8
GSLAYER
 10
3738.7161792888
 20
3704.5383961625
  0
VERTEX
  8
GSLAYER
 10
3737.9730754013
 20
3704.6858728703
  0
VERTEX
  8
GSLAYER
 10
3737.2299715137
 20
3704.7350317729
  0
SEQEND
  0
POLYLINE
  8
GSLAYER
 70
128
 66
1
  0
VERTEX
  8
GSLAYER
 10
3737.5121628634
 20
3698.3084045065
  0
VERTEX
  8
GSLAYER
 10
3742.6856709415
 20
3698.3084045065
  0
VERTEX
  8
GSLAYER
 10
3742.6856709415
 20
3698.2700365825
  0
VERTEX
  8
GSLAYER
 10
3742.6210020905
 20
3697.6489558131
  0
VERTEX
  8
GSLAYER
 10
3742.4834338075
 20
3697.0326710342
  0
VERTEX
  8
GSLAYER
 10
3742.2729660925
 20
3696.4211822458
  0
VERTEX
  8
GSLAYER
 10
3741.9895989455
 20
3695.8144894479
  0
VERTEX
  8
GSLAYER
 10
3741.5804214884
 20
3695.1814187023
  0
VERTEX
  8
GSLAYER
 10
3741.1053993831
 20
3694.6250838046
  0
VERTEX
  8
GSLAYER
 10
3740.5645326295
 20
3694.1454847549
  0
VERTEX
  8
GSLAYER
 10
3739.9578212276
 20
3693.7426215531
  0
VERTEX
  8
GSLAYER
 10
3739.3699225823
 20
3693.4536631256
  0
VERTEX
  8
GSLAYER
 10
3738.7726175588
 20
3693.2390425509
  0
VERTEX
  8
GSLAYER
 10
3738.1659061569
 20
3693.0987598288
  0
VERTEX
  8
GSLAYER
 10
3737.5497883767
 20
3693.0328149595
  0
VERTEX
  8
GSLAYER
 10
3737.5121628634
 20
3693.0328149595
  0
VERTEX
  8
GSLAYER
 10
3737.5121628634
 20
3698.3084045065
  0
SEQEND
  0
POLYLINE
  8
GSLAYER
 70
128
 66
1
  0
VERTEX
  8
GSLAYER
 10
3736.947780164
 20
3698.3084045065
  0
VERTEX
  8
GSLAYER
 10
3736.947780164
 20
3693.0328149595
  0
VERTEX
  8
GSLAYER
 10
3736.9101546507
 20
3693.0328149595
  0
VERTEX
  8
GSLAYER
 10
3736.3010916542
 20
3693.0987598288
  0
VERTEX
  8
GSLAYER
 10
3735.6967318469
 20
3693.2390425509
  0
VERTEX
  8
GSLAYER
 10
3735.0970752287
 20
3693.4536631256
  0
VERTEX
  8
GSLAYER
 10
3734.5021217998
 20
3693.7426215531
  0
VERTEX
  8
GSLAYER
 10
3733.8813008304
 20
3694.1598727263
  0
VERTEX
  8
GSLAYER
 10
3733.3357308876
 20
3694.6442677666
  0
VERTEX
  8
GSLAYER
 10
3732.8654119714
 20
3695.1958066738
  0
VERTEX
  8
GSLAYER
 10
3732.4703440818
 20
3695.8144894479
  0
VERTEX
  8
GSLAYER
 10
3732.1869769348
 20
3696.4139882601
  0
VERTEX
  8
GSLAYER
 10
3731.9765092198
 20
3697.0230790532
  0
VERTEX
  8
GSLAYER
 10
3731.8389409368
 20
3697.6417618274
  0
VERTEX
  8
GSLAYER
 10
3731.7742720858
 20
3698.2700365825
  0
VERTEX
  8
GSLAYER
 10
3731.7742720858
 20
3698.3084045065
  0
VERTEX
  8
GSLAYER
 10
3736.947780164
 20
3698.3084045065
  0
SEQEND
  0
POLYLINE
  8
GSLAYER
 70
128
 66
1
  0
VERTEX
  8
GSLAYER
 10
3737.5121628634
 20
3698.8839233662
  0
VERTEX
  8
GSLAYER
 10
3737.5121628634
 20
3704.1595129132
  0
VERTEX
  8
GSLAYER
 10
3737.5497883767
 20
3704.1595129132
  0
VERTEX
  8
GSLAYER
 10
3738.1588513731
 20
3704.0935680439
  0
VERTEX
  8
GSLAYER
 10
3738.7632111805
 20
3703.9532853218
  0
VERTEX
  8
GSLAYER
 10
3739.3628677986
 20
3703.7386647471
  0
VERTEX
  8
GSLAYER
 10
3739.9578212276
 20
3703.4497063196
  0
VERTEX
  8
GSLAYER
 10
3740.578642197
 20
3703.0324551463
  0
VERTEX
  8
GSLAYER
 10
3741.1242121397
 20
3702.5480601061
  0
VERTEX
  8
GSLAYER
 10
3741.5945310559
 20
3701.9965211989
  0
VERTEX
  8
GSLAYER
 10
3741.9895989455
 20
3701.3778384248
  0
VERTEX
  8
GSLAYER
 10
3742.2729660925
 20
3700.7783396126
  0
VERTEX
  8
GSLAYER
 10
3742.4834338075
 20
3700.1692488194
  0
VERTEX
  8
GSLAYER
 10
3742.6210020905
 20
3699.5505660453
  0
VERTEX
  8
GSLAYER
 10
3742.6856709415
 20
3698.9222912902
  0
VERTEX
  8
GSLAYER
 10
3742.6856709415
 20
3698.8839233662
  0
VERTEX
  8
GSLAYER
 10
3737.5121628634
 20
3698.8839233662
  0
SEQEND
  0
POLYLINE
  8
GSLAYER
 70
128
 66
1
  0
VERTEX
  8
GSLAYER
 10
3736.947780164
 20
3698.8839233662
  0
VERTEX
  8
GSLAYER
 10
3731.7742720858
 20
3698.8839233662
  0
VERTEX
  8
GSLAYER
 10
3731.7742720858
 20
3698.9222912902
  0
VERTEX
  8
GSLAYER
 10
3731.8389409368
 20
3699.5433720596
  0
VERTEX
  8
GSLAYER
 10
3731.9765092198
 20
3700.1596568385
  0
VERTEX
  8
GSLAYER
 10
3732.1869769348
 20
3700.7711456269
  0
VERTEX
  8
GSLAYER
 10
3732.4703440818
 20
3701.3778384248
  0
VERTEX
  8
GSLAYER
 10
3732.8795215389
 20
3702.0109091704
  0
VERTEX
  8
GSLAYER
 10
3733.3545436442
 20
3702.5672440681
  0
VERTEX
  8
GSLAYER
 10
3733.8954103979
 20
3703.0468431178
  0
VERTEX
  8
GSLAYER
 10
3734.5021217998
 20
3703.4497063196
  0
VERTEX
  8
GSLAYER
 10
3735.090020445
 20
3703.7386647471
  0
VERTEX
  8
GSLAYER
 10
3735.6873254686
 20
3703.9532853218
  0
VERTEX
  8
GSLAYER
 10
3736.2940368704
 20
3704.0935680439
  0
VERTEX
  8
GSLAYER
 10
3736.9101546507
 20
3704.1595129132
  0
VERTEX
  8
GSLAYER
 10
3736.947780164
 20
3704.1595129132
  0
VERTEX
  8
GSLAYER
 10
3736.947780164
 20
3698.8839233662
  0
SEQEND
  0
POLYLINE
  8
GSLAYER
 70
128
 66
1
  0
VERTEX
  8
GSLAYER
 10
3808.1331610125
 20
3635.0247770069
  0
VERTEX
  8
GSLAYER
 10
3807.3841781384
 20
3634.9756181043
  0
VERTEX
  8
GSLAYER
 10
3806.6422500481
 20
3634.8281413965
  0
VERTEX
  8
GSLAYER
 10
3805.9073767416
 20
3634.5823468836
  0
VERTEX
  8
GSLAYER
 10
3805.1795582188
 20
3634.2382345654
  0
VERTEX
  8
GSLAYER
 10
3804.496419993
 20
3633.7946054444
  0
VERTEX
  8
GSLAYER
 10
3803.8955875776
 20
3633.2694444849
  0
VERTEX
  8
GSLAYER
 10
3803.3770609725
 20
3632.662751687
  0
VERTEX
  8
GSLAYER
 10
3802.9408401777
 20
3631.9745270507
  0
VERTEX
  8
GSLAYER
 10
3802.7544763072
 20
3631.6070342788
  0
VERTEX
  8
GSLAYER
 10
3802.5904525851
 20
3631.2335465188
  0
VERTEX
  8
GSLAYER
 10
3802.4487690116
 20
3630.8540637707
  0
VERTEX
  8
GSLAYER
 10
3802.3294255866
 20
3630.4685860345
  0
VERTEX
  8
GSLAYER
 10
3802.2347739048
 20
3630.0783123078
  0
VERTEX
  8
GSLAYER
 10
3802.1671655606
 20
3629.6844415882
  0
VERTEX
  8
GSLAYER
 10
3802.126600554
 20
3629.2869738757
  0
VERTEX
  8
GSLAYER
 10
3802.1130788852
 20
3628.8859091704
  0
VERTEX
  8
GSLAYER
 10
3802.1636381687
 20
3628.1221476837
  0
VERTEX
  8
GSLAYER
 10
3802.3153160192
 20
3627.3655801828
  0
VERTEX
  8
GSLAYER
 10
3802.5681124366
 20
3626.6162066676
  0
VERTEX
  8
GSLAYER
 10
3802.9220274211
 20
3625.8740271381
  0
VERTEX
  8
GSLAYER
 10
3803.3723577833
 20
3625.1702155326
  0
VERTEX
  8
GSLAYER
 10
3803.8955875776
 20
3624.5551297514
  0
VERTEX
  8
GSLAYER
 10
3804.4917168038
 20
3624.0287697943
  0
VERTEX
  8
GSLAYER
 10
3805.1607454621
 20
3623.5911356614
  0
VERTEX
  8
GSLAYER
 10
3805.5193636357
 20
3623.4088880225
  0
VERTEX
  8
GSLAYER
 10
3805.8803334039
 20
3623.2458243456
  0
VERTEX
  8
GSLAYER
 10
3806.2436547667
 20
3623.1019446307
  0
VERTEX
  8
GSLAYER
 10
3806.609327724
 20
3622.9772488777
  0
VERTEX
  8
GSLAYER
 10
3806.9797038705
 20
3622.8765330773
  0
VERTEX
  8
GSLAYER
 10
3807.3571348007
 20
3622.8045932198
  0
VERTEX
  8
GSLAYER
 10
3807.7416205147
 20
3622.7614293054
  0
VERTEX
  8
GSLAYER
 10
3808.1331610125
 20
3622.7470413339
  0
VERTEX
  8
GSLAYER
 10
3808.5252894088
 20
3622.7614293054
  0
VERTEX
  8
GSLAYER
 10
3808.9115388188
 20
3622.8045932198
  0
VERTEX
  8
GSLAYER
 10
3809.2919092422
 20
3622.8765330773
  0
VERTEX
  8
GSLAYER
 10
3809.6664006792
 20
3622.9772488777
  0
VERTEX
  8
GSLAYER
 10
3810.0361889271
 20
3623.1019446307
  0
VERTEX
  8
GSLAYER
 10
3810.4024497831
 20
3623.2458243456
  0
VERTEX
  8
GSLAYER
 10
3810.7651832472
 20
3623.4088880225
  0
VERTEX
  8
GSLAYER
 10
3811.1243893194
 20
3623.5911356614
  0
VERTEX
  8
GSLAYER
 10
3811.7922421804
 20
3624.0287697943
  0
VERTEX
  8
GSLAYER
 10
3812.3848440148
 20
3624.5551297514
  0
VERTEX
  8
GSLAYER
 10
3812.9021948226
 20
3625.1702155326
  0
VERTEX
  8
GSLAYER
 10
3813.3442946039
 20
3625.8740271381
  0
VERTEX
  8
GSLAYER
 10
3813.6982095883
 20
3626.6162066676
  0
VERTEX
  8
GSLAYER
 10
3813.9510060057
 20
3627.3655801828
  0
VERTEX
  8
GSLAYER
 10
3814.1026838562
 20
3628.1221476837
  0
VERTEX
  8
GSLAYER
 10
3814.1532431397
 20
3628.8859091704
  0
VERTEX
  8
GSLAYER
 10
3814.1026838562
 20
3629.6760486048
  0
VERTEX
  8
GSLAYER
 10
3813.9510060057
 20
3630.454198063
  0
VERTEX
  8
GSLAYER
 10
3813.6982095883
 20
3631.220357545
  0
VERTEX
  8
GSLAYER
 10
3813.3442946039
 20
3631.9745270507
  0
VERTEX
  8
GSLAYER
 10
3813.1285358011
 20
3632.3294303475
  0
VERTEX
  8
GSLAYER
 10
3812.8951400389
 20
3632.6651496823
  0
VERTEX
  8
GSLAYER
 10
3812.6441073174
 20
3632.9816850551
  0
VERTEX
  8
GSLAYER
 10
3812.3754376365
 20
3633.2790364659
  0
VERTEX
  8
GSLAYER
 10
3812.087955199
 20
3633.5548059195
  0
VERTEX
  8
GSLAYER
 10
3811.7804842075
 20
3633.8065954206
  0
VERTEX
  8
GSLAYER
 10
3811.4530246621
 20
3634.0344049692
  0
VERTEX
  8
GSLAYER
 10
3811.1055765628
 20
3634.2382345654
  0
VERTEX
  8
GSLAYER
 10
3810.3624726752
 20
3634.5823468836
  0
VERTEX
  8
GSLAYER
 10
3809.6193687876
 20
3634.8281413965
  0
VERTEX
  8
GSLAYER
 10
3808.8762649
 20
3634.9756181043
  0
VERTEX
  8
GSLAYER
 10
3808.1331610125
 20
3635.0247770069
  0
SEQEND
  0
POLYLINE
  8
GSLAYER
 70
128
 66
1
  0
VERTEX
  8
GSLAYER
 10
3808.4153523622
 20
3628.5981497406
  0
VERTEX
  8
GSLAYER
 10
3813.5888604403
 20
3628.5981497406
  0
VERTEX
  8
GSLAYER
 10
3813.5888604403
 20
3628.5597818166
  0
VERTEX
  8
GSLAYER
 10
3813.5241915893
 20
3627.9387010472
  0
VERTEX
  8
GSLAYER
 10
3813.3866233063
 20
3627.3224162683
  0
VERTEX
  8
GSLAYER
 10
3813.1761555913
 20
3626.7109274799
  0
VERTEX
  8
GSLAYER
 10
3812.8927884443
 20
3626.104234682
  0
VERTEX
  8
GSLAYER
 10
3812.4836109872
 20
3625.4711639363
  0
VERTEX
  8
GSLAYER
 10
3812.0085888819
 20
3624.9148290387
  0
VERTEX
  8
GSLAYER
 10
3811.4677221283
 20
3624.4352299889
  0
VERTEX
  8
GSLAYER
 10
3810.8610107264
 20
3624.0323667872
  0
VERTEX
  8
GSLAYER
 10
3810.2731120811
 20
3623.7434083597
  0
VERTEX
  8
GSLAYER
 10
3809.6758070576
 20
3623.5287877849
  0
VERTEX
  8
GSLAYER
 10
3809.0690956557
 20
3623.3885050629
  0
VERTEX
  8
GSLAYER
 10
3808.4529778755
 20
3623.3225601936
  0
VERTEX
  8
GSLAYER
 10
3808.4153523622
 20
3623.3225601936
  0
VERTEX
  8
GSLAYER
 10
3808.4153523622
 20
3628.5981497406
  0
SEQEND
  0
POLYLINE
  8
GSLAYER
 70
128
 66
1
  0
VERTEX
  8
GSLAYER
 10
3807.8509696627
 20
3628.5981497406
  0
VERTEX
  8
GSLAYER
 10
3807.8509696627
 20
3623.3225601936
  0
VERTEX
  8
GSLAYER
 10
3807.8133441494
 20
3623.3225601936
  0
VERTEX
  8
GSLAYER
 10
3807.204281153
 20
3623.3885050629
  0
VERTEX
  8
GSLAYER
 10
3806.5999213457
 20
3623.5287877849
  0
VERTEX
  8
GSLAYER
 10
3806.0002647275
 20
3623.7434083597
  0
VERTEX
  8
GSLAYER
 10
3805.4053112985
 20
3624.0323667872
  0
VERTEX
  8
GSLAYER
 10
3804.7844903292
 20
3624.4496179604
  0
VERTEX
  8
GSLAYER
 10
3804.2389203864
 20
3624.9340130006
  0
VERTEX
  8
GSLAYER
 10
3803.7686014702
 20
3625.4855519078
  0
VERTEX
  8
GSLAYER
 10
3803.3735335806
 20
3626.104234682
  0
VERTEX
  8
GSLAYER
 10
3803.0901664336
 20
3626.7037334941
  0
VERTEX
  8
GSLAYER
 10
3802.8796987186
 20
3627.3128242873
  0
VERTEX
  8
GSLAYER
 10
3802.7421304356
 20
3627.9315070614
  0
VERTEX
  8
GSLAYER
 10
3802.6774615846
 20
3628.5597818166
  0
VERTEX
  8
GSLAYER
 10
3802.6774615846
 20
3628.5981497406
  0
VERTEX
  8
GSLAYER
 10
3807.8509696627
 20
3628.5981497406
  0
SEQEND
  0
POLYLINE
  8
GSLAYER
 70
128
 66
1
  0
VERTEX
  8
GSLAYER
 10
3808.4153523622
 20
3629.1736686002
  0
VERTEX
  8
GSLAYER
 10
3808.4153523622
 20
3634.4492581473
  0
VERTEX
  8
GSLAYER
 10
3808.4529778755
 20
3634.4492581473
  0
VERTEX
  8
GSLAYER
 10
3809.0620408719
 20
3634.3833132779
  0
VERTEX
  8
GSLAYER
 10
3809.6664006792
 20
3634.2430305559
  0
VERTEX
  8
GSLAYER
 10
3810.2660572974
 20
3634.0284099811
  0
VERTEX
  8
GSLAYER
 10
3810.8610107264
 20
3633.7394515537
  0
VERTEX
  8
GSLAYER
 10
3811.4818316957
 20
3633.3222003804
  0
VERTEX
  8
GSLAYER
 10
3812.0274016385
 20
3632.8378053402
  0
VERTEX
  8
GSLAYER
 10
3812.4977205547
 20
3632.286266433
  0
VERTEX
  8
GSLAYER
 10
3812.8927884443
 20
3631.6675836588
  0
VERTEX
  8
GSLAYER
 10
3813.1761555913
 20
3631.0680848467
  0
VERTEX
  8
GSLAYER
 10
3813.3866233063
 20
3630.4589940535
  0
VERTEX
  8
GSLAYER
 10
3813.5241915893
 20
3629.8403112794
  0
VERTEX
  8
GSLAYER
 10
3813.5888604403
 20
3629.2120365242
  0
VERTEX
  8
GSLAYER
 10
3813.5888604403
 20
3629.1736686002
  0
VERTEX
  8
GSLAYER
 10
3808.4153523622
 20
3629.1736686002
  0
SEQEND
  0
POLYLINE
  8
GSLAYER
 70
128
 66
1
  0
VERTEX
  8
GSLAYER
 10
3807.8509696627
 20
3629.1736686002
  0
VERTEX
  8
GSLAYER
 10
3802.6774615846
 20
3629.1736686002
  0
VERTEX
  8
GSLAYER
 10
3802.6774615846
 20
3629.2120365242
  0
VERTEX
  8
GSLAYER
 10
3802.7421304356
 20
3629.8331172936
  0
VERTEX
  8
GSLAYER
 10
3802.8796987186
 20
3630.4494020725
  0
VERTEX
  8
GSLAYER
 10
3803.0901664336
 20
3631.0608908609
  0
VERTEX
  8
GSLAYER
 10
3803.3735335806
 20
3631.6675836588
  0
VERTEX
  8
GSLAYER
 10
3803.7827110377
 20
3632.3006544045
  0
VERTEX
  8
GSLAYER
 10
3804.257733143
 20
3632.8569893022
  0
VERTEX
  8
GSLAYER
 10
3804.7985998967
 20
3633.3365883519
  0
VERTEX
  8
GSLAYER
 10
3805.4053112985
 20
3633.7394515537
  0
VERTEX
  8
GSLAYER
 10
3805.9932099438
 20
3634.0284099811
  0
VERTEX
  8
GSLAYER
 10
3806.5905149673
 20
3634.2430305559
  0
VERTEX
  8
GSLAYER
 10
3807.1972263692
 20
3634.3833132779
  0
VERTEX
  8
GSLAYER
 10
3807.8133441494
 20
3634.4492581473
  0
VERTEX
  8
GSLAYER
 10
3807.8509696627
 20
3634.4492581473
  0
VERTEX
  8
GSLAYER
 10
3807.8509696627
 20
3629.1736686002
  0
SEQEND
  0
POLYLINE
  8
GSLAYER
 70
128
 66
1
  0
VERTEX
  8
GSLAYER
 10
3811.7452102888
 20
3617.9041567073
  0
VERTEX
  8
GSLAYER
 10
3810.9962274148
 20
3617.8549978047
  0
VERTEX
  8
GSLAYER
 10
3810.2542993245
 20
3617.7075210969
  0
VERTEX
  8
GSLAYER
 10
3809.5194260179
 20
3617.4617265839
  0
VERTEX
  8
GSLAYER
 10
3808.7916074951
 20
3617.1176142657
  0
VERTEX
  8
GSLAYER
 10
3808.1084692694
 20
3616.6739851447
  0
VERTEX
  8
GSLAYER
 10
3807.5076368539
 20
3616.1488241853
  0
VERTEX
  8
GSLAYER
 10
3806.9891102488
 20
3615.5421313874
  0
VERTEX
  8
GSLAYER
 10
3806.5528894541
 20
3614.853906751
  0
VERTEX
  8
GSLAYER
 10
3806.3665255835
 20
3614.4864139792
  0
VERTEX
  8
GSLAYER
 10
3806.2025018615
 20
3614.1129262192
  0
VERTEX
  8
GSLAYER
 10
3806.060818288
 20
3613.7334434711
  0
VERTEX
  8
GSLAYER
 10
3805.941474863
 20
3613.3479657349
  0
VERTEX
  8
GSLAYER
 10
3805.8468231811
 20
3612.9576920081
  0
VERTEX
  8
GSLAYER
 10
3805.7792148369
 20
3612.5638212886
  0
VERTEX
  8
GSLAYER
 10
3805.7386498304
 20
3612.1663535761
  0
VERTEX
  8
GSLAYER
 10
3805.7251281616
 20
3611.7652888708
  0
VERTEX
  8
GSLAYER
 10
3805.775687445
 20
3611.0015273841
  0
VERTEX
  8
GSLAYER
 10
3805.9273652955
 20
3610.2449598831
  0
VERTEX
  8
GSLAYER
 10
3806.180161713
 20
3609.4955863679
  0
VERTEX
  8
GSLAYER
 10
3806.5340766974
 20
3608.7534068385
  0
VERTEX
  8
GSLAYER
 10
3806.9844070597
 20
3608.049595233
  0
VERTEX
  8
GSLAYER
 10
3807.5076368539
 20
3607.4345094517
  0
VERTEX
  8
GSLAYER
 10
3808.1037660802
 20
3606.9081494946
  0
VERTEX
  8
GSLAYER
 10
3808.7727947385
 20
3606.4705153617
  0
VERTEX
  8
GSLAYER
 10
3809.1314129121
 20
3606.2882677228
  0
VERTEX
  8
GSLAYER
 10
3809.4923826803
 20
3606.1252040459
  0
VERTEX
  8
GSLAYER
 10
3809.855704043
 20
3605.981324331
  0
VERTEX
  8
GSLAYER
 10
3810.2213770003
 20
3605.8566285781
  0
VERTEX
  8
GSLAYER
 10
3810.5917531468
 20
3605.7559127777
  0
VERTEX
  8
GSLAYER
 10
3810.9691840771
 20
3605.6839729202
  0
VERTEX
  8
GSLAYER
 10
3811.3536697911
 20
3605.6408090057
  0
VERTEX
  8
GSLAYER
 10
3811.7452102888
 20
3605.6264210342
  0
VERTEX
  8
GSLAYER
 10
3812.1373386852
 20
3605.6408090057
  0
VERTEX
  8
GSLAYER
 10
3812.5235880951
 20
3605.6839729202
  0
VERTEX
  8
GSLAYER
 10
3812.9039585186
 20
3605.7559127777
  0
VERTEX
  8
GSLAYER
 10
3813.2784499556
 20
3605.8566285781
  0
VERTEX
  8
GSLAYER
 10
3813.6482382035
 20
3605.981324331
  0
VERTEX
  8
GSLAYER
 10
3814.0144990594
 20
3606.1252040459
  0
VERTEX
  8
GSLAYER
 10
3814.3772325235
 20
3606.2882677228
  0
VERTEX
  8
GSLAYER
 10
3814.7364385958
 20
3606.4705153617
  0
VERTEX
  8
GSLAYER
 10
3815.4042914568
 20
3606.9081494946
  0
VERTEX
  8
GSLAYER
 10
3815.9968932912
 20
3607.4345094517
  0
VERTEX
  8
GSLAYER
 10
3816.514244099
 20
3608.049595233
  0
VERTEX
  8
GSLAYER
 10
3816.9563438802
 20
3608.7534068385
  0
VERTEX
  8
GSLAYER
 10
3817.3102588646
 20
3609.4955863679
  0
VERTEX
  8
GSLAYER
 10
3817.5630552821
 20
3610.2449598831
  0
VERTEX
  8
GSLAYER
 10
3817.7147331326
 20
3611.0015273841
  0
VERTEX
  8
GSLAYER
 10
3817.7652924161
 20
3611.7652888708
  0
VERTEX
  8
GSLAYER
 10
3817.7147331326
 20
3612.5554283052
  0
VERTEX
  8
GSLAYER
 10
3817.5630552821
 20
3613.3335777634
  0
VERTEX
  8
GSLAYER
 10
3817.3102588646
 20
3614.0997372453
  0
VERTEX
  8
GSLAYER
 10
3816.9563438802
 20
3614.853906751
  0
VERTEX
  8
GSLAYER
 10
3816.7405850774
 20
3615.2088100478
  0
VERTEX
  8
GSLAYER
 10
3816.5071893153
 20
3615.5445293826
  0
VERTEX
  8
GSLAYER
 10
3816.2561565937
 20
3615.8610647554
  0
VERTEX
  8
GSLAYER
 10
3815.9874869129
 20
3616.1584161663
  0
VERTEX
  8
GSLAYER
 10
3815.7000044753
 20
3616.4341856199
  0
VERTEX
  8
GSLAYER
 10
3815.3925334839
 20
3616.685975121
  0
VERTEX
  8
GSLAYER
 10
3815.0650739385
 20
3616.9137846696
  0
VERTEX
  8
GSLAYER
 10
3814.7176258391
 20
3617.1176142657
  0
VERTEX
  8
GSLAYER
 10
3813.9745219516
 20
3617.4617265839
  0
VERTEX
  8
GSLAYER
 10
3813.231418064
 20
3617.7075210969
  0
VERTEX
  8
GSLAYER
 10
3812.4883141764
 20
3617.8549978047
  0
VERTEX
  8
GSLAYER
 10
3811.7452102888
 20
3617.9041567073
  0
SEQEND
  0
POLYLINE
  8
GSLAYER
 70
128
 66
1
  0
VERTEX
  8
GSLAYER
 10
3812.0274016385
 20
3611.4775294409
  0
VERTEX
  8
GSLAYER
 10
3817.2009097166
 20
3611.4775294409
  0
VERTEX
  8
GSLAYER
 10
3817.2009097166
 20
3611.4391615169
  0
VERTEX
  8
GSLAYER
 10
3817.1362408657
 20
3610.8180807475
  0
VERTEX
  8
GSLAYER
 10
3816.9986725827
 20
3610.2017959686
  0
VERTEX
  8
GSLAYER
 10
3816.7882048677
 20
3609.5903071802
  0
VERTEX
  8
GSLAYER
 10
3816.5048377207
 20
3608.9836143823
  0
VERTEX
  8
GSLAYER
 10
3816.0956602636
 20
3608.3505436367
  0
VERTEX
  8
GSLAYER
 10
3815.6206381582
 20
3607.794208739
  0
VERTEX
  8
GSLAYER
 10
3815.0797714046
 20
3607.3146096893
  0
VERTEX
  8
GSLAYER
 10
3814.4730600027
 20
3606.9117464875
  0
VERTEX
  8
GSLAYER
 10
3813.8851613575
 20
3606.62278806
  0
VERTEX
  8
GSLAYER
 10
3813.2878563339
 20
3606.4081674853
  0
VERTEX
  8
GSLAYER
 10
3812.681144932
 20
3606.2678847632
  0
VERTEX
  8
GSLAYER
 10
3812.0650271518
 20
3606.2019398939
  0
VERTEX
  8
GSLAYER
 10
3812.0274016385
 20
3606.2019398939
  0
VERTEX
  8
GSLAYER
 10
3812.0274016385
 20
3611.4775294409
  0
SEQEND
  0
POLYLINE
  8
GSLAYER
 70
128
 66
1
  0
VERTEX
  8
GSLAYER
 10
3811.4630189391
 20
3611.4775294409
  0
VERTEX
  8
GSLAYER
 10
3811.4630189391
 20
3606.2019398939
  0
VERTEX
  8
GSLAYER
 10
3811.4253934258
 20
3606.2019398939
  0
VERTEX
  8
GSLAYER
 10
3810.8163304293
 20
3606.2678847632
  0
VERTEX
  8
GSLAYER
 10
3810.211970622
 20
3606.4081674853
  0
VERTEX
  8
GSLAYER
 10
3809.6123140039
 20
3606.62278806
  0
VERTEX
  8
GSLAYER
 10
3809.0173605749
 20
3606.9117464875
  0
VERTEX
  8
GSLAYER
 10
3808.3965396055
 20
3607.3289976608
  0
VERTEX
  8
GSLAYER
 10
3807.8509696627
 20
3607.813392701
  0
VERTEX
  8
GSLAYER
 10
3807.3806507465
 20
3608.3649316082
  0
VERTEX
  8
GSLAYER
 10
3806.9855828569
 20
3608.9836143823
  0
VERTEX
  8
GSLAYER
 10
3806.7022157099
 20
3609.5831131945
  0
VERTEX
  8
GSLAYER
 10
3806.4917479949
 20
3610.1922039876
  0
VERTEX
  8
GSLAYER
 10
3806.354179712
 20
3610.8108867618
  0
VERTEX
  8
GSLAYER
 10
3806.289510861
 20
3611.4391615169
  0
VERTEX
  8
GSLAYER
 10
3806.289510861
 20
3611.4775294409
  0
VERTEX
  8
GSLAYER
 10
3811.4630189391
 20
3611.4775294409
  0
SEQEND
  0
POLYLINE
  8
GSLAYER
 70
128
 66
1
  0
VERTEX
  8
GSLAYER
 10
3812.0274016385
 20
3612.0530483006
  0
VERTEX
  8
GSLAYER
 10
3812.0274016385
 20
3617.3286378476
  0
VERTEX
  8
GSLAYER
 10
3812.0650271518
 20
3617.3286378476
  0
VERTEX
  8
GSLAYER
 10
3812.6740901483
 20
3617.2626929783
  0
VERTEX
  8
GSLAYER
 10
3813.2784499556
 20
3617.1224102562
  0
VERTEX
  8
GSLAYER
 10
3813.8781065737
 20
3616.9077896815
  0
VERTEX
  8
GSLAYER
 10
3814.4730600027
 20
3616.618831254
  0
VERTEX
  8
GSLAYER
 10
3815.0938809721
 20
3616.2015800807
  0
VERTEX
  8
GSLAYER
 10
3815.6394509149
 20
3615.7171850405
  0
VERTEX
  8
GSLAYER
 10
3816.1097698311
 20
3615.1656461333
  0
VERTEX
  8
GSLAYER
 10
3816.5048377207
 20
3614.5469633592
  0
VERTEX
  8
GSLAYER
 10
3816.7882048677
 20
3613.947464547
  0
VERTEX
  8
GSLAYER
 10
3816.9986725827
 20
3613.3383737539
  0
VERTEX
  8
GSLAYER
 10
3817.1362408657
 20
3612.7196909797
  0
VERTEX
  8
GSLAYER
 10
3817.2009097166
 20
3612.0914162246
  0
VERTEX
  8
GSLAYER
 10
3817.2009097166
 20
3612.0530483006
  0
VERTEX
  8
GSLAYER
 10
3812.0274016385
 20
3612.0530483006
  0
SEQEND
  0
POLYLINE
  8
GSLAYER
 70
128
 66
1
  0
VERTEX
  8
GSLAYER
 10
3811.4630189391
 20
3612.0530483006
  0
VERTEX
  8
GSLAYER
 10
3806.289510861
 20
3612.0530483006
  0
VERTEX
  8
GSLAYER
 10
3806.289510861
 20
3612.0914162246
  0
VERTEX
  8
GSLAYER
 10
3806.354179712
 20
3612.712496994
  0
VERTEX
  8
GSLAYER
 10
3806.4917479949
 20
3613.3287817729
  0
VERTEX
  8
GSLAYER
 10
3806.7022157099
 20
3613.9402705613
  0
VERTEX
  8
GSLAYER
 10
3806.9855828569
 20
3614.5469633592
  0
VERTEX
  8
GSLAYER
 10
3807.394760314
 20
3615.1800341048
  0
VERTEX
  8
GSLAYER
 10
3807.8697824194
 20
3615.7363690025
  0
VERTEX
  8
GSLAYER
 10
3808.410649173
 20
3616.2159680522
  0
VERTEX
  8
GSLAYER
 10
3809.0173605749
 20
3616.618831254
  0
VERTEX
  8
GSLAYER
 10
3809.6052592201
 20
3616.9077896815
  0
VERTEX
  8
GSLAYER
 10
3810.2025642437
 20
3617.1224102562
  0
VERTEX
  8
GSLAYER
 10
3810.8092756456
 20
3617.2626929783
  0
VERTEX
  8
GSLAYER
 10
3811.4253934258
 20
3617.3286378476
  0
VERTEX
  8
GSLAYER
 10
3811.4630189391
 20
3617.3286378476
  0
VERTEX
  8
GSLAYER
 10
3811.4630189391
 20
3612.0530483006
  0
SEQEND
  0
POLYLINE
  8
GSLAYER
 70
128
 66
1
  0
VERTEX
  8
GSLAYER
 10
3870.2068967246
 20
3589.6653646592
  0
VERTEX
  8
GSLAYER
 10
3869.4579138506
 20
3589.6162057566
  0
VERTEX
  8
GSLAYER
 10
3868.7159857603
 20
3589.4687290489
  0
VERTEX
  8
GSLAYER
 10
3867.9811124537
 20
3589.2229345359
  0
VERTEX
  8
GSLAYER
 10
3867.2532939309
 20
3588.8788222177
  0
VERTEX
  8
GSLAYER
 10
3866.5701557051
 20
3588.4351930967
  0
VERTEX
  8
GSLAYER
 10
3865.9693232897
 20
3587.9100321372
  0
VERTEX
  8
GSLAYER
 10
3865.4507966846
 20
3587.3033393393
  0
VERTEX
  8
GSLAYER
 10
3865.0145758898
 20
3586.615114703
  0
VERTEX
  8
GSLAYER
 10
3864.8282120193
 20
3586.2476219311
  0
VERTEX
  8
GSLAYER
 10
3864.6641882973
 20
3585.8741341711
  0
VERTEX
  8
GSLAYER
 10
3864.5225047238
 20
3585.494651423
  0
VERTEX
  8
GSLAYER
 10
3864.4031612988
 20
3585.1091736868
  0
VERTEX
  8
GSLAYER
 10
3864.3085096169
 20
3584.7188999601
  0
VERTEX
  8
GSLAYER
 10
3864.2409012727
 20
3584.3250292405
  0
VERTEX
  8
GSLAYER
 10
3864.2003362662
 20
3583.9275615281
  0
VERTEX
  8
GSLAYER
 10
3864.1868145973
 20
3583.5264968227
  0
VERTEX
  8
GSLAYER
 10
3864.2373738808
 20
3582.762735336
  0
VERTEX
  8
GSLAYER
 10
3864.3890517313
 20
3582.0061678351
  0
VERTEX
  8
GSLAYER
 10
3864.6418481488
 20
3581.2567943199
  0
VERTEX
  8
GSLAYER
 10
3864.9957631332
 20
3580.5146147904
  0
VERTEX
  8
GSLAYER
 10
3865.4460934954
 20
3579.8108031849
  0
VERTEX
  8
GSLAYER
 10
3865.9693232897
 20
3579.1957174037
  0
VERTEX
  8
GSLAYER
 10
3866.565452516
 20
3578.6693574466
  0
VERTEX
  8
GSLAYER
 10
3867.2344811743
 20
3578.2317233137
  0
VERTEX
  8
GSLAYER
 10
3867.5930993479
 20
3578.0494756748
  0
VERTEX
  8
GSLAYER
 10
3867.954069116
 20
3577.8864119979
  0
VERTEX
  8
GSLAYER
 10
3868.3173904788
 20
3577.742532283
  0
VERTEX
  8
GSLAYER
 10
3868.6830634361
 20
3577.6178365301
  0
VERTEX
  8
GSLAYER
 10
3869.0534395826
 20
3577.5171207296
  0
VERTEX
  8
GSLAYER
 10
3869.4308705129
 20
3577.4451808722
  0
VERTEX
  8
GSLAYER
 10
3869.8153562269
 20
3577.4020169577
  0
VERTEX
  8
GSLAYER
 10
3870.2068967246
 20
3577.3876289862
  0
VERTEX
  8
GSLAYER
 10
3870.599025121
 20
3577.4020169577
  0
VERTEX
  8
GSLAYER
 10
3870.9852745309
 20
3577.4451808722
  0
VERTEX
  8
GSLAYER
 10
3871.3656449544
 20
3577.5171207296
  0
VERTEX
  8
GSLAYER
 10
3871.7401363914
 20
3577.6178365301
  0
VERTEX
  8
GSLAYER
 10
3872.1099246392
 20
3577.742532283
  0
VERTEX
  8
GSLAYER
 10
3872.4761854952
 20
3577.8864119979
  0
VERTEX
  8
GSLAYER
 10
3872.8389189593
 20
3578.0494756748
  0
VERTEX
  8
GSLAYER
 10
3873.1981250316
 20
3578.2317233137
  0
VERTEX
  8
GSLAYER
 10
3873.8659778926
 20
3578.6693574466
  0
VERTEX
  8
GSLAYER
 10
3874.458579727
 20
3579.1957174037
  0
VERTEX
  8
GSLAYER
 10
3874.9759305348
 20
3579.8108031849
  0
VERTEX
  8
GSLAYER
 10
3875.418030316
 20
3580.5146147904
  0
VERTEX
  8
GSLAYER
 10
3875.7719453004
 20
3581.2567943199
  0
VERTEX
  8
GSLAYER
 10
3876.0247417179
 20
3582.0061678351
  0
VERTEX
  8
GSLAYER
 10
3876.1764195684
 20
3582.762735336
  0
VERTEX
  8
GSLAYER
 10
3876.2269788519
 20
3583.5264968227
  0
VERTEX
  8
GSLAYER
 10
3876.1764195684
 20
3584.3166362571
  0
VERTEX
  8
GSLAYER
 10
3876.0247417179
 20
3585.0947857153
  0
VERTEX
  8
GSLAYER
 10
3875.7719453004
 20
3585.8609451973
  0
VERTEX
  8
GSLAYER
 10
3875.418030316
 20
3586.615114703
  0
VERTEX
  8
GSLAYER
 10
3875.2022715132
 20
3586.9700179998
  0
VERTEX
  8
GSLAYER
 10
3874.968875751
 20
3587.3057373346
  0
VERTEX
  8
GSLAYER
 10
3874.7178430295
 20
3587.6222727074
  0
VERTEX
  8
GSLAYER
 10
3874.4491733487
 20
3587.9196241182
  0
VERTEX
  8
GSLAYER
 10
3874.1616909111
 20
3588.1953935718
  0
VERTEX
  8
GSLAYER
 10
3873.8542199197
 20
3588.4471830729
  0
VERTEX
  8
GSLAYER
 10
3873.5267603743
 20
3588.6749926216
  0
VERTEX
  8
GSLAYER
 10
3873.1793122749
 20
3588.8788222177
  0
VERTEX
  8
GSLAYER
 10
3872.4362083874
 20
3589.2229345359
  0
VERTEX
  8
GSLAYER
 10
3871.6931044998
 20
3589.4687290489
  0
VERTEX
  8
GSLAYER
 10
3870.9500006122
 20
3589.6162057566
  0
VERTEX
  8
GSLAYER
 10
3870.2068967246
 20
3589.6653646592
  0
SEQEND
  0
POLYLINE
  8
GSLAYER
 70
128
 66
1
  0
VERTEX
  8
GSLAYER
 10
3870.4890880743
 20
3583.2387373929
  0
VERTEX
  8
GSLAYER
 10
3875.6625961524
 20
3583.2387373929
  0
VERTEX
  8
GSLAYER
 10
3875.6625961524
 20
3583.2003694689
  0
VERTEX
  8
GSLAYER
 10
3875.5979273015
 20
3582.5792886995
  0
VERTEX
  8
GSLAYER
 10
3875.4603590185
 20
3581.9630039206
  0
VERTEX
  8
GSLAYER
 10
3875.2498913035
 20
3581.3515151322
  0
VERTEX
  8
GSLAYER
 10
3874.9665241565
 20
3580.7448223343
  0
VERTEX
  8
GSLAYER
 10
3874.5573466994
 20
3580.1117515886
  0
VERTEX
  8
GSLAYER
 10
3874.082324594
 20
3579.555416691
  0
VERTEX
  8
GSLAYER
 10
3873.5414578404
 20
3579.0758176412
  0
VERTEX
  8
GSLAYER
 10
3872.9347464385
 20
3578.6729544395
  0
VERTEX
  8
GSLAYER
 10
3872.3468477933
 20
3578.383996012
  0
VERTEX
  8
GSLAYER
 10
3871.7495427697
 20
3578.1693754372
  0
VERTEX
  8
GSLAYER
 10
3871.1428313678
 20
3578.0290927152
  0
VERTEX
  8
GSLAYER
 10
3870.5267135876
 20
3577.9631478459
  0
VERTEX
  8
GSLAYER
 10
3870.4890880743
 20
3577.9631478459
  0
VERTEX
  8
GSLAYER
 10
3870.4890880743
 20
3583.2387373929
  0
SEQEND
  0
POLYLINE
  8
GSLAYER
 70
128
 66
1
  0
VERTEX
  8
GSLAYER
 10
3869.9247053749
 20
3583.2387373929
  0
VERTEX
  8
GSLAYER
 10
3869.9247053749
 20
3577.9631478459
  0
VERTEX
  8
GSLAYER
 10
3869.8870798616
 20
3577.9631478459
  0
VERTEX
  8
GSLAYER
 10
3869.2780168651
 20
3578.0290927152
  0
VERTEX
  8
GSLAYER
 10
3868.6736570578
 20
3578.1693754372
  0
VERTEX
  8
GSLAYER
 10
3868.0740004397
 20
3578.383996012
  0
VERTEX
  8
GSLAYER
 10
3867.4790470107
 20
3578.6729544395
  0
VERTEX
  8
GSLAYER
 10
3866.8582260413
 20
3579.0902056127
  0
VERTEX
  8
GSLAYER
 10
3866.3126560985
 20
3579.574600653
  0
VERTEX
  8
GSLAYER
 10
3865.8423371823
 20
3580.1261395601
  0
VERTEX
  8
GSLAYER
 10
3865.4472692927
 20
3580.7448223343
  0
VERTEX
  8
GSLAYER
 10
3865.1639021457
 20
3581.3443211465
  0
VERTEX
  8
GSLAYER
 10
3864.9534344307
 20
3581.9534119396
  0
VERTEX
  8
GSLAYER
 10
3864.8158661478
 20
3582.5720947138
  0
VERTEX
  8
GSLAYER
 10
3864.7511972968
 20
3583.2003694689
  0
VERTEX
  8
GSLAYER
 10
3864.7511972968
 20
3583.2387373929
  0
VERTEX
  8
GSLAYER
 10
3869.9247053749
 20
3583.2387373929
  0
SEQEND
  0
POLYLINE
  8
GSLAYER
 70
128
 66
1
  0
VERTEX
  8
GSLAYER
 10
3870.4890880743
 20
3583.8142562526
  0
VERTEX
  8
GSLAYER
 10
3870.4890880743
 20
3589.0898457996
  0
VERTEX
  8
GSLAYER
 10
3870.5267135876
 20
3589.0898457996
  0
VERTEX
  8
GSLAYER
 10
3871.1357765841
 20
3589.0239009302
  0
VERTEX
  8
GSLAYER
 10
3871.7401363914
 20
3588.8836182082
  0
VERTEX
  8
GSLAYER
 10
3872.3397930095
 20
3588.6689976334
  0
VERTEX
  8
GSLAYER
 10
3872.9347464385
 20
3588.380039206
  0
VERTEX
  8
GSLAYER
 10
3873.5555674079
 20
3587.9627880327
  0
VERTEX
  8
GSLAYER
 10
3874.1011373507
 20
3587.4783929925
  0
VERTEX
  8
GSLAYER
 10
3874.5714562669
 20
3586.9268540853
  0
VERTEX
  8
GSLAYER
 10
3874.9665241565
 20
3586.3081713111
  0
VERTEX
  8
GSLAYER
 10
3875.2498913035
 20
3585.708672499
  0
VERTEX
  8
GSLAYER
 10
3875.4603590185
 20
3585.0995817058
  0
VERTEX
  8
GSLAYER
 10
3875.5979273015
 20
3584.4808989317
  0
VERTEX
  8
GSLAYER
 10
3875.6625961524
 20
3583.8526241765
  0
VERTEX
  8
GSLAYER
 10
3875.6625961524
 20
3583.8142562526
  0
VERTEX
  8
GSLAYER
 10
3870.4890880743
 20
3583.8142562526
  0
SEQEND
  0
POLYLINE
  8
GSLAYER
 70
128
 66
1
  0
VERTEX
  8
GSLAYER
 10
3869.9247053749
 20
3583.8142562526
  0
VERTEX
  8
GSLAYER
 10
3864.7511972968
 20
3583.8142562526
  0
VERTEX
  8
GSLAYER
 10
3864.7511972968
 20
3583.8526241765
  0
VERTEX
  8
GSLAYER
 10
3864.8158661478
 20
3584.4737049459
  0
VERTEX
  8
GSLAYER
 10
3864.9534344307
 20
3585.0899897248
  0
VERTEX
  8
GSLAYER
 10
3865.1639021457
 20
3585.7014785132
  0
VERTEX
  8
GSLAYER
 10
3865.4472692927
 20
3586.3081713111
  0
VERTEX
  8
GSLAYER
 10
3865.8564467498
 20
3586.9412420568
  0
VERTEX
  8
GSLAYER
 10
3866.3314688552
 20
3587.4975769545
  0
VERTEX
  8
GSLAYER
 10
3866.8723356088
 20
3587.9771760042
  0
VERTEX
  8
GSLAYER
 10
3867.4790470107
 20
3588.380039206
  0
VERTEX
  8
GSLAYER
 10
3868.0669456559
 20
3588.6689976334
  0
VERTEX
  8
GSLAYER
 10
3868.6642506795
 20
3588.8836182082
  0
VERTEX
  8
GSLAYER
 10
3869.2709620814
 20
3589.0239009302
  0
VERTEX
  8
GSLAYER
 10
3869.8870798616
 20
3589.0898457996
  0
VERTEX
  8
GSLAYER
 10
3869.9247053749
 20
3589.0898457996
  0
VERTEX
  8
GSLAYER
 10
3869.9247053749
 20
3583.8142562526
  0
SEQEND
  0
POLYLINE
  8
GSLAYER
 70
128
 66
1
  0
VERTEX
  8
GSLAYER
 10
3850.6750747117
 20
3650.0308983851
  0
VERTEX
  8
GSLAYER
 10
3849.9260918377
 20
3649.9817394825
  0
VERTEX
  8
GSLAYER
 10
3849.1841637474
 20
3649.8342627747
  0
VERTEX
  8
GSLAYER
 10
3848.4492904409
 20
3649.5884682617
  0
VERTEX
  8
GSLAYER
 10
3847.721471918
 20
3649.2443559436
  0
VERTEX
  8
GSLAYER
 10
3847.0383336923
 20
3648.8007268226
  0
VERTEX
  8
GSLAYER
 10
3846.4375012768
 20
3648.2755658631
  0
VERTEX
  8
GSLAYER
 10
3845.9189746717
 20
3647.6688730652
  0
VERTEX
  8
GSLAYER
 10
3845.482753877
 20
3646.9806484288
  0
VERTEX
  8
GSLAYER
 10
3845.2963900064
 20
3646.613155657
  0
VERTEX
  8
GSLAYER
 10
3845.1323662844
 20
3646.239667897
  0
VERTEX
  8
GSLAYER
 10
3844.9906827109
 20
3645.8601851489
  0
VERTEX
  8
GSLAYER
 10
3844.8713392859
 20
3645.4747074127
  0
VERTEX
  8
GSLAYER
 10
3844.776687604
 20
3645.084433686
  0
VERTEX
  8
GSLAYER
 10
3844.7090792598
 20
3644.6905629664
  0
VERTEX
  8
GSLAYER
 10
3844.6685142533
 20
3644.2930952539
  0
VERTEX
  8
GSLAYER
 10
3844.6549925845
 20
3643.8920305486
  0
VERTEX
  8
GSLAYER
 10
3844.705551868
 20
3643.1282690619
  0
VERTEX
  8
GSLAYER
 10
3844.8572297184
 20
3642.371701561
  0
VERTEX
  8
GSLAYER
 10
3845.1100261359
 20
3641.6223280458
  0
VERTEX
  8
GSLAYER
 10
3845.4639411203
 20
3640.8801485163
  0
VERTEX
  8
GSLAYER
 10
3845.9142714826
 20
3640.1763369108
  0
VERTEX
  8
GSLAYER
 10
3846.4375012768
 20
3639.5612511295
  0
VERTEX
  8
GSLAYER
 10
3847.0336305031
 20
3639.0348911725
  0
VERTEX
  8
GSLAYER
 10
3847.7026591614
 20
3638.5972570396
  0
VERTEX
  8
GSLAYER
 10
3848.061277335
 20
3638.4150094007
  0
VERTEX
  8
GSLAYER
 10
3848.4222471032
 20
3638.2519457238
  0
VERTEX
  8
GSLAYER
 10
3848.7855684659
 20
3638.1080660089
  0
VERTEX
  8
GSLAYER
 10
3849.1512414233
 20
3637.9833702559
  0
VERTEX
  8
GSLAYER
 10
3849.5216175698
 20
3637.8826544555
  0
VERTEX
  8
GSLAYER
 10
3849.8990485
 20
3637.810714598
  0
VERTEX
  8
GSLAYER
 10
3850.283534214
 20
3637.7675506836
  0
VERTEX
  8
GSLAYER
 10
3850.6750747117
 20
3637.7531627121
  0
VERTEX
  8
GSLAYER
 10
3851.0672031081
 20
3637.7675506836
  0
VERTEX
  8
GSLAYER
 10
3851.453452518
 20
3637.810714598
  0
VERTEX
  8
GSLAYER
 10
3851.8338229415
 20
3637.8826544555
  0
VERTEX
  8
GSLAYER
 10
3852.2083143785
 20
3637.9833702559
  0
VERTEX
  8
GSLAYER
 10
3852.5781026264
 20
3638.1080660089
  0
VERTEX
  8
GSLAYER
 10
3852.9443634824
 20
3638.2519457238
  0
VERTEX
  8
GSLAYER
 10
3853.3070969465
 20
3638.4150094007
  0
VERTEX
  8
GSLAYER
 10
3853.6663030187
 20
3638.5972570396
  0
VERTEX
  8
GSLAYER
 10
3854.3341558797
 20
3639.0348911725
  0
VERTEX
  8
GSLAYER
 10
3854.9267577141
 20
3639.5612511295
  0
VERTEX
  8
GSLAYER
 10
3855.4441085219
 20
3640.1763369108
  0
VERTEX
  8
GSLAYER
 10
3855.8862083031
 20
3640.8801485163
  0
VERTEX
  8
GSLAYER
 10
3856.2401232876
 20
3641.6223280458
  0
VERTEX
  8
GSLAYER
 10
3856.492919705
 20
3642.371701561
  0
VERTEX
  8
GSLAYER
 10
3856.6445975555
 20
3643.1282690619
  0
VERTEX
  8
GSLAYER
 10
3856.695156839
 20
3643.8920305486
  0
VERTEX
  8
GSLAYER
 10
3856.6445975555
 20
3644.682169983
  0
VERTEX
  8
GSLAYER
 10
3856.492919705
 20
3645.4603194412
  0
VERTEX
  8
GSLAYER
 10
3856.2401232876
 20
3646.2264789231
  0
VERTEX
  8
GSLAYER
 10
3855.8862083031
 20
3646.9806484288
  0
VERTEX
  8
GSLAYER
 10
3855.6704495003
 20
3647.3355517256
  0
VERTEX
  8
GSLAYER
 10
3855.4370537382
 20
3647.6712710605
  0
VERTEX
  8
GSLAYER
 10
3855.1860210167
 20
3647.9878064333
  0
VERTEX
  8
GSLAYER
 10
3854.9173513358
 20
3648.2851578441
  0
VERTEX
  8
GSLAYER
 10
3854.6298688983
 20
3648.5609272977
  0
VERTEX
  8
GSLAYER
 10
3854.3223979068
 20
3648.8127167988
  0
VERTEX
  8
GSLAYER
 10
3853.9949383614
 20
3649.0405263474
  0
VERTEX
  8
GSLAYER
 10
3853.6474902621
 20
3649.2443559436
  0
VERTEX
  8
GSLAYER
 10
3852.9043863745
 20
3649.5884682617
  0
VERTEX
  8
GSLAYER
 10
3852.1612824869
 20
3649.8342627747
  0
VERTEX
  8
GSLAYER
 10
3851.4181785993
 20
3649.9817394825
  0
VERTEX
  8
GSLAYER
 10
3850.6750747117
 20
3650.0308983851
  0
SEQEND
  0
POLYLINE
  8
GSLAYER
 70
128
 66
1
  0
VERTEX
  8
GSLAYER
 10
3850.9572660614
 20
3643.6042711188
  0
VERTEX
  8
GSLAYER
 10
3856.1307741396
 20
3643.6042711188
  0
VERTEX
  8
GSLAYER
 10
3856.1307741396
 20
3643.5659031948
  0
VERTEX
  8
GSLAYER
 10
3856.0661052886
 20
3642.9448224254
  0
VERTEX
  8
GSLAYER
 10
3855.9285370056
 20
3642.3285376465
  0
VERTEX
  8
GSLAYER
 10
3855.7180692906
 20
3641.7170488581
  0
VERTEX
  8
GSLAYER
 10
3855.4347021436
 20
3641.1103560602
  0
VERTEX
  8
GSLAYER
 10
3855.0255246865
 20
3640.4772853145
  0
VERTEX
  8
GSLAYER
 10
3854.5505025811
 20
3639.9209504168
  0
VERTEX
  8
GSLAYER
 10
3854.0096358275
 20
3639.4413513671
  0
VERTEX
  8
GSLAYER
 10
3853.4029244256
 20
3639.0384881653
  0
VERTEX
  8
GSLAYER
 10
3852.8150257804
 20
3638.7495297379
  0
VERTEX
  8
GSLAYER
 10
3852.2177207568
 20
3638.5349091631
  0
VERTEX
  8
GSLAYER
 10
3851.6110093549
 20
3638.3946264411
  0
VERTEX
  8
GSLAYER
 10
3850.9948915747
 20
3638.3286815717
  0
VERTEX
  8
GSLAYER
 10
3850.9572660614
 20
3638.3286815717
  0
VERTEX
  8
GSLAYER
 10
3850.9572660614
 20
3643.6042711188
  0
SEQEND
  0
POLYLINE
  8
GSLAYER
 70
128
 66
1
  0
VERTEX
  8
GSLAYER
 10
3850.392883362
 20
3643.6042711188
  0
VERTEX
  8
GSLAYER
 10
3850.392883362
 20
3638.3286815717
  0
VERTEX
  8
GSLAYER
 10
3850.3552578487
 20
3638.3286815717
  0
VERTEX
  8
GSLAYER
 10
3849.7461948522
 20
3638.3946264411
  0
VERTEX
  8
GSLAYER
 10
3849.1418350449
 20
3638.5349091631
  0
VERTEX
  8
GSLAYER
 10
3848.5421784268
 20
3638.7495297379
  0
VERTEX
  8
GSLAYER
 10
3847.9472249978
 20
3639.0384881653
  0
VERTEX
  8
GSLAYER
 10
3847.3264040284
 20
3639.4557393386
  0
VERTEX
  8
GSLAYER
 10
3846.7808340857
 20
3639.9401343788
  0
VERTEX
  8
GSLAYER
 10
3846.3105151695
 20
3640.491673286
  0
VERTEX
  8
GSLAYER
 10
3845.9154472799
 20
3641.1103560602
  0
VERTEX
  8
GSLAYER
 10
3845.6320801329
 20
3641.7098548723
  0
VERTEX
  8
GSLAYER
 10
3845.4216124179
 20
3642.3189456655
  0
VERTEX
  8
GSLAYER
 10
3845.2840441349
 20
3642.9376284396
  0
VERTEX
  8
GSLAYER
 10
3845.2193752839
 20
3643.5659031948
  0
VERTEX
  8
GSLAYER
 10
3845.2193752839
 20
3643.6042711188
  0
VERTEX
  8
GSLAYER
 10
3850.392883362
 20
3643.6042711188
  0
SEQEND
  0
POLYLINE
  8
GSLAYER
 70
128
 66
1
  0
VERTEX
  8
GSLAYER
 10
3850.9572660614
 20
3644.1797899784
  0
VERTEX
  8
GSLAYER
 10
3850.9572660614
 20
3649.4553795254
  0
VERTEX
  8
GSLAYER
 10
3850.9948915747
 20
3649.4553795254
  0
VERTEX
  8
GSLAYER
 10
3851.6039545712
 20
3649.3894346561
  0
VERTEX
  8
GSLAYER
 10
3852.2083143785
 20
3649.2491519341
  0
VERTEX
  8
GSLAYER
 10
3852.8079709967
 20
3649.0345313593
  0
VERTEX
  8
GSLAYER
 10
3853.4029244256
 20
3648.7455729318
  0
VERTEX
  8
GSLAYER
 10
3854.023745395
 20
3648.3283217586
  0
VERTEX
  8
GSLAYER
 10
3854.5693153378
 20
3647.8439267184
  0
VERTEX
  8
GSLAYER
 10
3855.039634254
 20
3647.2923878112
  0
VERTEX
  8
GSLAYER
 10
3855.4347021436
 20
3646.673705037
  0
VERTEX
  8
GSLAYER
 10
3855.7180692906
 20
3646.0742062249
  0
VERTEX
  8
GSLAYER
 10
3855.9285370056
 20
3645.4651154317
  0
VERTEX
  8
GSLAYER
 10
3856.0661052886
 20
3644.8464326576
  0
VERTEX
  8
GSLAYER
 10
3856.1307741396
 20
3644.2181579024
  0
VERTEX
  8
GSLAYER
 10
3856.1307741396
 20
3644.1797899784
  0
VERTEX
  8
GSLAYER
 10
3850.9572660614
 20
3644.1797899784
  0
SEQEND
  0
POLYLINE
  8
GSLAYER
 70
128
 66
1
  0
VERTEX
  8
GSLAYER
 10
3850.392883362
 20
3644.1797899784
  0
VERTEX
  8
GSLAYER
 10
3845.2193752839
 20
3644.1797899784
  0
VERTEX
  8
GSLAYER
 10
3845.2193752839
 20
3644.2181579024
  0
VERTEX
  8
GSLAYER
 10
3845.2840441349
 20
3644.8392386718
  0
VERTEX
  8
GSLAYER
 10
3845.4216124179
 20
3645.4555234507
  0
VERTEX
  8
GSLAYER
 10
3845.6320801329
 20
3646.0670122391
  0
VERTEX
  8
GSLAYER
 10
3845.9154472799
 20
3646.673705037
  0
VERTEX
  8
GSLAYER
 10
3846.324624737
 20
3647.3067757827
  0
VERTEX
  8
GSLAYER
 10
3846.7996468423
 20
3647.8631106803
  0
VERTEX
  8
GSLAYER
 10
3847.3405135959
 20
3648.3427097301
  0
VERTEX
  8
GSLAYER
 10
3847.9472249978
 20
3648.7455729318
  0
VERTEX
  8
GSLAYER
 10
3848.5351236431
 20
3649.0345313593
  0
VERTEX
  8
GSLAYER
 10
3849.1324286666
 20
3649.2491519341
  0
VERTEX
  8
GSLAYER
 10
3849.7391400685
 20
3649.3894346561
  0
VERTEX
  8
GSLAYER
 10
3850.3552578487
 20
3649.4553795254
  0
VERTEX
  8
GSLAYER
 10
3850.392883362
 20
3649.4553795254
  0
VERTEX
  8
GSLAYER
 10
3850.392883362
 20
3644.1797899784
  0
SEQEND
  0
POLYLINE
  8
GSLAYER
 70
128
 66
1
  0
VERTEX
  8
GSLAYER
 10
3836.6951062162
 20
3672.1990322393
  0
VERTEX
  8
GSLAYER
 10
3835.9461233422
 20
3672.1498733367
  0
VERTEX
  8
GSLAYER
 10
3835.2041952519
 20
3672.0023966289
  0
VERTEX
  8
GSLAYER
 10
3834.4693219453
 20
3671.7566021159
  0
VERTEX
  8
GSLAYER
 10
3833.7415034225
 20
3671.4124897977
  0
VERTEX
  8
GSLAYER
 10
3833.0583651968
 20
3670.9688606767
  0
VERTEX
  8
GSLAYER
 10
3832.4575327813
 20
3670.4436997173
  0
VERTEX
  8
GSLAYER
 10
3831.9390061762
 20
3669.8370069193
  0
VERTEX
  8
GSLAYER
 10
3831.5027853815
 20
3669.148782283
  0
VERTEX
  8
GSLAYER
 10
3831.3164215109
 20
3668.7812895111
  0
VERTEX
  8
GSLAYER
 10
3831.1523977889
 20
3668.4078017512
  0
VERTEX
  8
GSLAYER
 10
3831.0107142154
 20
3668.0283190031
  0
VERTEX
  8
GSLAYER
 10
3830.8913707904
 20
3667.6428412668
  0
VERTEX
  8
GSLAYER
 10
3830.7967191085
 20
3667.2525675401
  0
VERTEX
  8
GSLAYER
 10
3830.7291107643
 20
3666.8586968205
  0
VERTEX
  8
GSLAYER
 10
3830.6885457578
 20
3666.4612291081
  0
VERTEX
  8
GSLAYER
 10
3830.675024089
 20
3666.0601644027
  0
VERTEX
  8
GSLAYER
 10
3830.7255833724
 20
3665.296402916
  0
VERTEX
  8
GSLAYER
 10
3830.8772612229
 20
3664.5398354151
  0
VERTEX
  8
GSLAYER
 10
3831.1300576404
 20
3663.7904618999
  0
VERTEX
  8
GSLAYER
 10
3831.4839726248
 20
3663.0482823704
  0
VERTEX
  8
GSLAYER
 10
3831.9343029871
 20
3662.344470765
  0
VERTEX
  8
GSLAYER
 10
3832.4575327813
 20
3661.7293849837
  0
VERTEX
  8
GSLAYER
 10
3833.0536620076
 20
3661.2030250266
  0
VERTEX
  8
GSLAYER
 10
3833.7226906659
 20
3660.7653908937
  0
VERTEX
  8
GSLAYER
 10
3834.0813088395
 20
3660.5831432548
  0
VERTEX
  8
GSLAYER
 10
3834.4422786077
 20
3660.4200795779
  0
VERTEX
  8
GSLAYER
 10
3834.8055999704
 20
3660.276199863
  0
VERTEX
  8
GSLAYER
 10
3835.1712729278
 20
3660.1515041101
  0
VERTEX
  8
GSLAYER
 10
3835.5416490743
 20
3660.0507883096
  0
VERTEX
  8
GSLAYER
 10
3835.9190800045
 20
3659.9788484522
  0
VERTEX
  8
GSLAYER
 10
3836.3035657185
 20
3659.9356845377
  0
VERTEX
  8
GSLAYER
 10
3836.6951062162
 20
3659.9212965662
  0
VERTEX
  8
GSLAYER
 10
3837.0872346126
 20
3659.9356845377
  0
VERTEX
  8
GSLAYER
 10
3837.4734840225
 20
3659.9788484522
  0
VERTEX
  8
GSLAYER
 10
3837.853854446
 20
3660.0507883096
  0
VERTEX
  8
GSLAYER
 10
3838.228345883
 20
3660.1515041101
  0
VERTEX
  8
GSLAYER
 10
3838.5981341309
 20
3660.276199863
  0
VERTEX
  8
GSLAYER
 10
3838.9643949868
 20
3660.4200795779
  0
VERTEX
  8
GSLAYER
 10
3839.327128451
 20
3660.5831432548
  0
VERTEX
  8
GSLAYER
 10
3839.6863345232
 20
3660.7653908937
  0
VERTEX
  8
GSLAYER
 10
3840.3541873842
 20
3661.2030250266
  0
VERTEX
  8
GSLAYER
 10
3840.9467892186
 20
3661.7293849837
  0
VERTEX
  8
GSLAYER
 10
3841.4641400264
 20
3662.344470765
  0
VERTEX
  8
GSLAYER
 10
3841.9062398076
 20
3663.0482823704
  0
VERTEX
  8
GSLAYER
 10
3842.2601547921
 20
3663.7904618999
  0
VERTEX
  8
GSLAYER
 10
3842.5129512095
 20
3664.5398354151
  0
VERTEX
  8
GSLAYER
 10
3842.66462906
 20
3665.296402916
  0
VERTEX
  8
GSLAYER
 10
3842.7151883435
 20
3666.0601644027
  0
VERTEX
  8
GSLAYER
 10
3842.66462906
 20
3666.8503038372
  0
VERTEX
  8
GSLAYER
 10
3842.5129512095
 20
3667.6284532953
  0
VERTEX
  8
GSLAYER
 10
3842.2601547921
 20
3668.3946127773
  0
VERTEX
  8
GSLAYER
 10
3841.9062398076
 20
3669.148782283
  0
VERTEX
  8
GSLAYER
 10
3841.6904810048
 20
3669.5036855798
  0
VERTEX
  8
GSLAYER
 10
3841.4570852427
 20
3669.8394049146
  0
VERTEX
  8
GSLAYER
 10
3841.2060525211
 20
3670.1559402874
  0
VERTEX
  8
GSLAYER
 10
3840.9373828403
 20
3670.4532916982
  0
VERTEX
  8
GSLAYER
 10
3840.6499004027
 20
3670.7290611518
  0
VERTEX
  8
GSLAYER
 10
3840.3424294113
 20
3670.9808506529
  0
VERTEX
  8
GSLAYER
 10
3840.0149698659
 20
3671.2086602016
  0
VERTEX
  8
GSLAYER
 10
3839.6675217665
 20
3671.4124897977
  0
VERTEX
  8
GSLAYER
 10
3838.924417879
 20
3671.7566021159
  0
VERTEX
  8
GSLAYER
 10
3838.1813139914
 20
3672.0023966289
  0
VERTEX
  8
GSLAYER
 10
3837.4382101038
 20
3672.1498733367
  0
VERTEX
  8
GSLAYER
 10
3836.6951062162
 20
3672.1990322393
  0
SEQEND
  0
POLYLINE
  8
GSLAYER
 70
128
 66
1
  0
VERTEX
  8
GSLAYER
 10
3836.9772975659
 20
3665.7724049729
  0
VERTEX
  8
GSLAYER
 10
3842.150805644
 20
3665.7724049729
  0
VERTEX
  8
GSLAYER
 10
3842.150805644
 20
3665.7340370489
  0
VERTEX
  8
GSLAYER
 10
3842.0861367931
 20
3665.1129562795
  0
VERTEX
  8
GSLAYER
 10
3841.9485685101
 20
3664.4966715006
  0
VERTEX
  8
GSLAYER
 10
3841.7381007951
 20
3663.8851827122
  0
VERTEX
  8
GSLAYER
 10
3841.4547336481
 20
3663.2784899143
  0
VERTEX
  8
GSLAYER
 10
3841.045556191
 20
3662.6454191687
  0
VERTEX
  8
GSLAYER
 10
3840.5705340856
 20
3662.089084271
  0
VERTEX
  8
GSLAYER
 10
3840.029667332
 20
3661.6094852212
  0
VERTEX
  8
GSLAYER
 10
3839.4229559301
 20
3661.2066220195
  0
VERTEX
  8
GSLAYER
 10
3838.8350572849
 20
3660.917663592
  0
VERTEX
  8
GSLAYER
 10
3838.2377522613
 20
3660.7030430173
  0
VERTEX
  8
GSLAYER
 10
3837.6310408594
 20
3660.5627602952
  0
VERTEX
  8
GSLAYER
 10
3837.0149230792
 20
3660.4968154259
  0
VERTEX
  8
GSLAYER
 10
3836.9772975659
 20
3660.4968154259
  0
VERTEX
  8
GSLAYER
 10
3836.9772975659
 20
3665.7724049729
  0
SEQEND
  0
POLYLINE
  8
GSLAYER
 70
128
 66
1
  0
VERTEX
  8
GSLAYER
 10
3836.4129148665
 20
3665.7724049729
  0
VERTEX
  8
GSLAYER
 10
3836.4129148665
 20
3660.4968154259
  0
VERTEX
  8
GSLAYER
 10
3836.3752893532
 20
3660.4968154259
  0
VERTEX
  8
GSLAYER
 10
3835.7662263567
 20
3660.5627602952
  0
VERTEX
  8
GSLAYER
 10
3835.1618665494
 20
3660.7030430173
  0
VERTEX
  8
GSLAYER
 10
3834.5622099313
 20
3660.917663592
  0
VERTEX
  8
GSLAYER
 10
3833.9672565023
 20
3661.2066220195
  0
VERTEX
  8
GSLAYER
 10
3833.3464355329
 20
3661.6238731927
  0
VERTEX
  8
GSLAYER
 10
3832.8008655901
 20
3662.108268233
  0
VERTEX
  8
GSLAYER
 10
3832.330546674
 20
3662.6598071402
  0
VERTEX
  8
GSLAYER
 10
3831.9354787844
 20
3663.2784899143
  0
VERTEX
  8
GSLAYER
 10
3831.6521116373
 20
3663.8779887265
  0
VERTEX
  8
GSLAYER
 10
3831.4416439223
 20
3664.4870795196
  0
VERTEX
  8
GSLAYER
 10
3831.3040756394
 20
3665.1057622938
  0
VERTEX
  8
GSLAYER
 10
3831.2394067884
 20
3665.7340370489
  0
VERTEX
  8
GSLAYER
 10
3831.2394067884
 20
3665.7724049729
  0
VERTEX
  8
GSLAYER
 10
3836.4129148665
 20
3665.7724049729
  0
SEQEND
  0
POLYLINE
  8
GSLAYER
 70
128
 66
1
  0
VERTEX
  8
GSLAYER
 10
3836.9772975659
 20
3666.3479238326
  0
VERTEX
  8
GSLAYER
 10
3836.9772975659
 20
3671.6235133796
  0
VERTEX
  8
GSLAYER
 10
3837.0149230792
 20
3671.6235133796
  0
VERTEX
  8
GSLAYER
 10
3837.6239860757
 20
3671.5575685102
  0
VERTEX
  8
GSLAYER
 10
3838.228345883
 20
3671.4172857882
  0
VERTEX
  8
GSLAYER
 10
3838.8280025011
 20
3671.2026652134
  0
VERTEX
  8
GSLAYER
 10
3839.4229559301
 20
3670.913706786
  0
VERTEX
  8
GSLAYER
 10
3840.0437768995
 20
3670.4964556127
  0
VERTEX
  8
GSLAYER
 10
3840.5893468423
 20
3670.0120605725
  0
VERTEX
  8
GSLAYER
 10
3841.0596657585
 20
3669.4605216653
  0
VERTEX
  8
GSLAYER
 10
3841.4547336481
 20
3668.8418388912
  0
VERTEX
  8
GSLAYER
 10
3841.7381007951
 20
3668.242340079
  0
VERTEX
  8
GSLAYER
 10
3841.9485685101
 20
3667.6332492858
  0
VERTEX
  8
GSLAYER
 10
3842.0861367931
 20
3667.0145665117
  0
VERTEX
  8
GSLAYER
 10
3842.150805644
 20
3666.3862917565
  0
VERTEX
  8
GSLAYER
 10
3842.150805644
 20
3666.3479238326
  0
VERTEX
  8
GSLAYER
 10
3836.9772975659
 20
3666.3479238326
  0
SEQEND
  0
POLYLINE
  8
GSLAYER
 70
128
 66
1
  0
VERTEX
  8
GSLAYER
 10
3836.4129148665
 20
3666.3479238326
  0
VERTEX
  8
GSLAYER
 10
3831.2394067884
 20
3666.3479238326
  0
VERTEX
  8
GSLAYER
 10
3831.2394067884
 20
3666.3862917565
  0
VERTEX
  8
GSLAYER
 10
3831.3040756394
 20
3667.0073725259
  0
VERTEX
  8
GSLAYER
 10
3831.4416439223
 20
3667.6236573048
  0
VERTEX
  8
GSLAYER
 10
3831.6521116373
 20
3668.2351460932
  0
VERTEX
  8
GSLAYER
 10
3831.9354787844
 20
3668.8418388912
  0
VERTEX
  8
GSLAYER
 10
3832.3446562414
 20
3669.4749096368
  0
VERTEX
  8
GSLAYER
 10
3832.8196783468
 20
3670.0312445345
  0
VERTEX
  8
GSLAYER
 10
3833.3605451004
 20
3670.5108435842
  0
VERTEX
  8
GSLAYER
 10
3833.9672565023
 20
3670.913706786
  0
VERTEX
  8
GSLAYER
 10
3834.5551551475
 20
3671.2026652134
  0
VERTEX
  8
GSLAYER
 10
3835.1524601711
 20
3671.4172857882
  0
VERTEX
  8
GSLAYER
 10
3835.759171573
 20
3671.5575685102
  0
VERTEX
  8
GSLAYER
 10
3836.3752893532
 20
3671.6235133796
  0
VERTEX
  8
GSLAYER
 10
3836.4129148665
 20
3671.6235133796
  0
VERTEX
  8
GSLAYER
 10
3836.4129148665
 20
3666.3479238326
  0
SEQEND
  0
POLYLINE
  8
GSLAYER
 70
128
 66
1
  0
VERTEX
  8
GSLAYER
 10
3829.872346472
 20
3668.3110826095
  0
VERTEX
  8
GSLAYER
 10
3829.123363598
 20
3668.2619237069
  0
VERTEX
  8
GSLAYER
 10
3828.3814355077
 20
3668.1144469991
  0
VERTEX
  8
GSLAYER
 10
3827.6465622011
 20
3667.8686524861
  0
VERTEX
  8
GSLAYER
 10
3826.9187436783
 20
3667.5245401679
  0
VERTEX
  8
GSLAYER
 10
3826.2356054525
 20
3667.0809110469
  0
VERTEX
  8
GSLAYER
 10
3825.6347730371
 20
3666.5557500874
  0
VERTEX
  8
GSLAYER
 10
3825.116246432
 20
3665.9490572895
  0
VERTEX
  8
GSLAYER
 10
3824.6800256372
 20
3665.2608326532
  0
VERTEX
  8
GSLAYER
 10
3824.4936617667
 20
3664.8933398813
  0
VERTEX
  8
GSLAYER
 10
3824.3296380447
 20
3664.5198521213
  0
VERTEX
  8
GSLAYER
 10
3824.1879544712
 20
3664.1403693733
  0
VERTEX
  8
GSLAYER
 10
3824.0686110462
 20
3663.754891637
  0
VERTEX
  8
GSLAYER
 10
3823.9739593643
 20
3663.3646179103
  0
VERTEX
  8
GSLAYER
 10
3823.9063510201
 20
3662.9707471907
  0
VERTEX
  8
GSLAYER
 10
3823.8657860136
 20
3662.5732794783
  0
VERTEX
  8
GSLAYER
 10
3823.8522643447
 20
3662.1722147729
  0
VERTEX
  8
GSLAYER
 10
3823.9028236282
 20
3661.4084532862
  0
VERTEX
  8
GSLAYER
 10
3824.0545014787
 20
3660.6518857853
  0
VERTEX
  8
GSLAYER
 10
3824.3072978961
 20
3659.9025122701
  0
VERTEX
  8
GSLAYER
 10
3824.6612128806
 20
3659.1603327406
  0
VERTEX
  8
GSLAYER
 10
3825.1115432428
 20
3658.4565211352
  0
VERTEX
  8
GSLAYER
 10
3825.6347730371
 20
3657.8414353539
  0
VERTEX
  8
GSLAYER
 10
3826.2309022634
 20
3657.3150753968
  0
VERTEX
  8
GSLAYER
 10
3826.8999309217
 20
3656.8774412639
  0
VERTEX
  8
GSLAYER
 10
3827.2585490953
 20
3656.695193625
  0
VERTEX
  8
GSLAYER
 10
3827.6195188634
 20
3656.5321299481
  0
VERTEX
  8
GSLAYER
 10
3827.9828402262
 20
3656.3882502332
  0
VERTEX
  8
GSLAYER
 10
3828.3485131835
 20
3656.2635544803
  0
VERTEX
  8
GSLAYER
 10
3828.71888933
 20
3656.1628386798
  0
VERTEX
  8
GSLAYER
 10
3829.0963202603
 20
3656.0908988224
  0
VERTEX
  8
GSLAYER
 10
3829.4808059743
 20
3656.0477349079
  0
VERTEX
  8
GSLAYER
 10
3829.872346472
 20
3656.0333469364
  0
VERTEX
  8
GSLAYER
 10
3830.2644748684
 20
3656.0477349079
  0
VERTEX
  8
GSLAYER
 10
3830.6507242783
 20
3656.0908988224
  0
VERTEX
  8
GSLAYER
 10
3831.0310947018
 20
3656.1628386798
  0
VERTEX
  8
GSLAYER
 10
3831.4055861388
 20
3656.2635544803
  0
VERTEX
  8
GSLAYER
 10
3831.7753743866
 20
3656.3882502332
  0
VERTEX
  8
GSLAYER
 10
3832.1416352426
 20
3656.5321299481
  0
VERTEX
  8
GSLAYER
 10
3832.5043687067
 20
3656.695193625
  0
VERTEX
  8
GSLAYER
 10
3832.863574779
 20
3656.8774412639
  0
VERTEX
  8
GSLAYER
 10
3833.53142764
 20
3657.3150753968
  0
VERTEX
  8
GSLAYER
 10
3834.1240294744
 20
3657.8414353539
  0
VERTEX
  8
GSLAYER
 10
3834.6413802822
 20
3658.4565211352
  0
VERTEX
  8
GSLAYER
 10
3835.0834800634
 20
3659.1603327406
  0
VERTEX
  8
GSLAYER
 10
3835.4373950478
 20
3659.9025122701
  0
VERTEX
  8
GSLAYER
 10
3835.6901914653
 20
3660.6518857853
  0
VERTEX
  8
GSLAYER
 10
3835.8418693158
 20
3661.4084532862
  0
VERTEX
  8
GSLAYER
 10
3835.8924285992
 20
3662.1722147729
  0
VERTEX
  8
GSLAYER
 10
3835.8418693158
 20
3662.9623542074
  0
VERTEX
  8
GSLAYER
 10
3835.6901914653
 20
3663.7405036655
  0
VERTEX
  8
GSLAYER
 10
3835.4373950478
 20
3664.5066631475
  0
VERTEX
  8
GSLAYER
 10
3835.0834800634
 20
3665.2608326532
  0
VERTEX
  8
GSLAYER
 10
3834.8677212606
 20
3665.61573595
  0
VERTEX
  8
GSLAYER
 10
3834.6343254984
 20
3665.9514552848
  0
VERTEX
  8
GSLAYER
 10
3834.3832927769
 20
3666.2679906576
  0
VERTEX
  8
GSLAYER
 10
3834.114623096
 20
3666.5653420684
  0
VERTEX
  8
GSLAYER
 10
3833.8271406585
 20
3666.841111522
  0
VERTEX
  8
GSLAYER
 10
3833.5196696671
 20
3667.0929010231
  0
VERTEX
  8
GSLAYER
 10
3833.1922101217
 20
3667.3207105718
  0
VERTEX
  8
GSLAYER
 10
3832.8447620223
 20
3667.5245401679
  0
VERTEX
  8
GSLAYER
 10
3832.1016581347
 20
3667.8686524861
  0
VERTEX
  8
GSLAYER
 10
3831.3585542472
 20
3668.1144469991
  0
VERTEX
  8
GSLAYER
 10
3830.6154503596
 20
3668.2619237069
  0
VERTEX
  8
GSLAYER
 10
3829.872346472
 20
3668.3110826095
  0
SEQEND
  0
POLYLINE
  8
GSLAYER
 70
128
 66
1
  0
VERTEX
  8
GSLAYER
 10
3830.1545378217
 20
3661.8844553431
  0
VERTEX
  8
GSLAYER
 10
3835.3280458998
 20
3661.8844553431
  0
VERTEX
  8
GSLAYER
 10
3835.3280458998
 20
3661.8460874191
  0
VERTEX
  8
GSLAYER
 10
3835.2633770488
 20
3661.2250066497
  0
VERTEX
  8
GSLAYER
 10
3835.1258087659
 20
3660.6087218708
  0
VERTEX
  8
GSLAYER
 10
3834.9153410509
 20
3659.9972330824
  0
VERTEX
  8
GSLAYER
 10
3834.6319739039
 20
3659.3905402845
  0
VERTEX
  8
GSLAYER
 10
3834.2227964468
 20
3658.7574695389
  0
VERTEX
  8
GSLAYER
 10
3833.7477743414
 20
3658.2011346412
  0
VERTEX
  8
GSLAYER
 10
3833.2069075878
 20
3657.7215355914
  0
VERTEX
  8
GSLAYER
 10
3832.6001961859
 20
3657.3186723897
  0
VERTEX
  8
GSLAYER
 10
3832.0122975407
 20
3657.0297139622
  0
VERTEX
  8
GSLAYER
 10
3831.4149925171
 20
3656.8150933875
  0
VERTEX
  8
GSLAYER
 10
3830.8082811152
 20
3656.6748106654
  0
VERTEX
  8
GSLAYER
 10
3830.192163335
 20
3656.6088657961
  0
VERTEX
  8
GSLAYER
 10
3830.1545378217
 20
3656.6088657961
  0
VERTEX
  8
GSLAYER
 10
3830.1545378217
 20
3661.8844553431
  0
SEQEND
  0
POLYLINE
  8
GSLAYER
 70
128
 66
1
  0
VERTEX
  8
GSLAYER
 10
3829.5901551223
 20
3661.8844553431
  0
VERTEX
  8
GSLAYER
 10
3829.5901551223
 20
3656.6088657961
  0
VERTEX
  8
GSLAYER
 10
3829.552529609
 20
3656.6088657961
  0
VERTEX
  8
GSLAYER
 10
3828.9434666125
 20
3656.6748106654
  0
VERTEX
  8
GSLAYER
 10
3828.3391068052
 20
3656.8150933875
  0
VERTEX
  8
GSLAYER
 10
3827.7394501871
 20
3657.0297139622
  0
VERTEX
  8
GSLAYER
 10
3827.1444967581
 20
3657.3186723897
  0
VERTEX
  8
GSLAYER
 10
3826.5236757887
 20
3657.7359235629
  0
VERTEX
  8
GSLAYER
 10
3825.9781058459
 20
3658.2203186032
  0
VERTEX
  8
GSLAYER
 10
3825.5077869297
 20
3658.7718575103
  0
VERTEX
  8
GSLAYER
 10
3825.1127190401
 20
3659.3905402845
  0
VERTEX
  8
GSLAYER
 10
3824.8293518931
 20
3659.9900390967
  0
VERTEX
  8
GSLAYER
 10
3824.6188841781
 20
3660.5991298898
  0
VERTEX
  8
GSLAYER
 10
3824.4813158951
 20
3661.217812664
  0
VERTEX
  8
GSLAYER
 10
3824.4166470442
 20
3661.8460874191
  0
VERTEX
  8
GSLAYER
 10
3824.4166470442
 20
3661.8844553431
  0
VERTEX
  8
GSLAYER
 10
3829.5901551223
 20
3661.8844553431
  0
SEQEND
  0
POLYLINE
  8
GSLAYER
 70
128
 66
1
  0
VERTEX
  8
GSLAYER
 10
3830.1545378217
 20
3662.4599742028
  0
VERTEX
  8
GSLAYER
 10
3830.1545378217
 20
3667.7355637498
  0
VERTEX
  8
GSLAYER
 10
3830.192163335
 20
3667.7355637498
  0
VERTEX
  8
GSLAYER
 10
3830.8012263315
 20
3667.6696188804
  0
VERTEX
  8
GSLAYER
 10
3831.4055861388
 20
3667.5293361584
  0
VERTEX
  8
GSLAYER
 10
3832.0052427569
 20
3667.3147155836
  0
VERTEX
  8
GSLAYER
 10
3832.6001961859
 20
3667.0257571562
  0
VERTEX
  8
GSLAYER
 10
3833.2210171553
 20
3666.6085059829
  0
VERTEX
  8
GSLAYER
 10
3833.7665870981
 20
3666.1241109427
  0
VERTEX
  8
GSLAYER
 10
3834.2369060142
 20
3665.5725720355
  0
VERTEX
  8
GSLAYER
 10
3834.6319739039
 20
3664.9538892614
  0
VERTEX
  8
GSLAYER
 10
3834.9153410509
 20
3664.3543904492
  0
VERTEX
  8
GSLAYER
 10
3835.1258087659
 20
3663.745299656
  0
VERTEX
  8
GSLAYER
 10
3835.2633770488
 20
3663.1266168819
  0
VERTEX
  8
GSLAYER
 10
3835.3280458998
 20
3662.4983421267
  0
VERTEX
  8
GSLAYER
 10
3835.3280458998
 20
3662.4599742028
  0
VERTEX
  8
GSLAYER
 10
3830.1545378217
 20
3662.4599742028
  0
SEQEND
  0
POLYLINE
  8
GSLAYER
 70
128
 66
1
  0
VERTEX
  8
GSLAYER
 10
3829.5901551223
 20
3662.4599742028
  0
VERTEX
  8
GSLAYER
 10
3824.4166470442
 20
3662.4599742028
  0
VERTEX
  8
GSLAYER
 10
3824.4166470442
 20
3662.4983421267
  0
VERTEX
  8
GSLAYER
 10
3824.4813158951
 20
3663.1194228961
  0
VERTEX
  8
GSLAYER
 10
3824.6188841781
 20
3663.735707675
  0
VERTEX
  8
GSLAYER
 10
3824.8293518931
 20
3664.3471964634
  0
VERTEX
  8
GSLAYER
 10
3825.1127190401
 20
3664.9538892614
  0
VERTEX
  8
GSLAYER
 10
3825.5218964972
 20
3665.586960007
  0
VERTEX
  8
GSLAYER
 10
3825.9969186026
 20
3666.1432949047
  0
VERTEX
  8
GSLAYER
 10
3826.5377853562
 20
3666.6228939544
  0
VERTEX
  8
GSLAYER
 10
3827.1444967581
 20
3667.0257571562
  0
VERTEX
  8
GSLAYER
 10
3827.7323954033
 20
3667.3147155836
  0
VERTEX
  8
GSLAYER
 10
3828.3297004269
 20
3667.5293361584
  0
VERTEX
  8
GSLAYER
 10
3828.9364118288
 20
3667.6696188804
  0
VERTEX
  8
GSLAYER
 10
3829.552529609
 20
3667.7355637498
  0
VERTEX
  8
GSLAYER
 10
3829.5901551223
 20
3667.7355637498
  0
VERTEX
  8
GSLAYER
 10
3829.5901551223
 20
3662.4599742028
  0
SEQEND
  0
POLYLINE
  8
GSLAYER
 70
128
 66
1
  0
VERTEX
  8
GSLAYER
 10
3831.2101425003
 20
3679.22462543
  0
VERTEX
  8
GSLAYER
 10
3830.4611596262
 20
3679.1754665274
  0
VERTEX
  8
GSLAYER
 10
3829.7192315359
 20
3679.0279898196
  0
VERTEX
  8
GSLAYER
 10
3828.9843582294
 20
3678.7821953066
  0
VERTEX
  8
GSLAYER
 10
3828.2565397066
 20
3678.4380829884
  0
VERTEX
  8
GSLAYER
 10
3827.5734014808
 20
3677.9944538674
  0
VERTEX
  8
GSLAYER
 10
3826.9725690654
 20
3677.4692929079
  0
VERTEX
  8
GSLAYER
 10
3826.4540424603
 20
3676.86260011
  0
VERTEX
  8
GSLAYER
 10
3826.0178216655
 20
3676.1743754737
  0
VERTEX
  8
GSLAYER
 10
3825.831457795
 20
3675.8068827018
  0
VERTEX
  8
GSLAYER
 10
3825.6674340729
 20
3675.4333949418
  0
VERTEX
  8
GSLAYER
 10
3825.5257504994
 20
3675.0539121937
  0
VERTEX
  8
GSLAYER
 10
3825.4064070745
 20
3674.6684344575
  0
VERTEX
  8
GSLAYER
 10
3825.3117553926
 20
3674.2781607308
  0
VERTEX
  8
GSLAYER
 10
3825.2441470484
 20
3673.8842900112
  0
VERTEX
  8
GSLAYER
 10
3825.2035820419
 20
3673.4868222988
  0
VERTEX
  8
GSLAYER
 10
3825.190060373
 20
3673.0857575934
  0
VERTEX
  8
GSLAYER
 10
3825.2406196565
 20
3672.3219961067
  0
VERTEX
  8
GSLAYER
 10
3825.392297507
 20
3671.5654286058
  0
VERTEX
  8
GSLAYER
 10
3825.6450939244
 20
3670.8160550906
  0
VERTEX
  8
GSLAYER
 10
3825.9990089089
 20
3670.0738755611
  0
VERTEX
  8
GSLAYER
 10
3826.4493392711
 20
3669.3700639556
  0
VERTEX
  8
GSLAYER
 10
3826.9725690654
 20
3668.7549781744
  0
VERTEX
  8
GSLAYER
 10
3827.5686982917
 20
3668.2286182173
  0
VERTEX
  8
GSLAYER
 10
3828.2377269499
 20
3667.7909840844
  0
VERTEX
  8
GSLAYER
 10
3828.5963451235
 20
3667.6087364455
  0
VERTEX
  8
GSLAYER
 10
3828.9573148917
 20
3667.4456727686
  0
VERTEX
  8
GSLAYER
 10
3829.3206362545
 20
3667.3017930537
  0
VERTEX
  8
GSLAYER
 10
3829.6863092118
 20
3667.1770973008
  0
VERTEX
  8
GSLAYER
 10
3830.0566853583
 20
3667.0763815003
  0
VERTEX
  8
GSLAYER
 10
3830.4341162886
 20
3667.0044416429
  0
VERTEX
  8
GSLAYER
 10
3830.8186020025
 20
3666.9612777284
  0
VERTEX
  8
GSLAYER
 10
3831.2101425003
 20
3666.9468897569
  0
VERTEX
  8
GSLAYER
 10
3831.6022708966
 20
3666.9612777284
  0
VERTEX
  8
GSLAYER
 10
3831.9885203066
 20
3667.0044416429
  0
VERTEX
  8
GSLAYER
 10
3832.36889073
 20
3667.0763815003
  0
VERTEX
  8
GSLAYER
 10
3832.7433821671
 20
3667.1770973008
  0
VERTEX
  8
GSLAYER
 10
3833.1131704149
 20
3667.3017930537
  0
VERTEX
  8
GSLAYER
 10
3833.4794312709
 20
3667.4456727686
  0
VERTEX
  8
GSLAYER
 10
3833.842164735
 20
3667.6087364455
  0
VERTEX
  8
GSLAYER
 10
3834.2013708072
 20
3667.7909840844
  0
VERTEX
  8
GSLAYER
 10
3834.8692236682
 20
3668.2286182173
  0
VERTEX
  8
GSLAYER
 10
3835.4618255026
 20
3668.7549781744
  0
VERTEX
  8
GSLAYER
 10
3835.9791763105
 20
3669.3700639556
  0
VERTEX
  8
GSLAYER
 10
3836.4212760917
 20
3670.0738755611
  0
VERTEX
  8
GSLAYER
 10
3836.7751910761
 20
3670.8160550906
  0
VERTEX
  8
GSLAYER
 10
3837.0279874936
 20
3671.5654286058
  0
VERTEX
  8
GSLAYER
 10
3837.179665344
 20
3672.3219961067
  0
VERTEX
  8
GSLAYER
 10
3837.2302246275
 20
3673.0857575934
  0
VERTEX
  8
GSLAYER
 10
3837.179665344
 20
3673.8758970279
  0
VERTEX
  8
GSLAYER
 10
3837.0279874936
 20
3674.654046486
  0
VERTEX
  8
GSLAYER
 10
3836.7751910761
 20
3675.420205968
  0
VERTEX
  8
GSLAYER
 10
3836.4212760917
 20
3676.1743754737
  0
VERTEX
  8
GSLAYER
 10
3836.2055172889
 20
3676.5292787705
  0
VERTEX
  8
GSLAYER
 10
3835.9721215267
 20
3676.8649981053
  0
VERTEX
  8
GSLAYER
 10
3835.7210888052
 20
3677.1815334781
  0
VERTEX
  8
GSLAYER
 10
3835.4524191243
 20
3677.4788848889
  0
VERTEX
  8
GSLAYER
 10
3835.1649366868
 20
3677.7546543425
  0
VERTEX
  8
GSLAYER
 10
3834.8574656953
 20
3678.0064438436
  0
VERTEX
  8
GSLAYER
 10
3834.5300061499
 20
3678.2342533923
  0
VERTEX
  8
GSLAYER
 10
3834.1825580506
 20
3678.4380829884
  0
VERTEX
  8
GSLAYER
 10
3833.439454163
 20
3678.7821953066
  0
VERTEX
  8
GSLAYER
 10
3832.6963502754
 20
3679.0279898196
  0
VERTEX
  8
GSLAYER
 10
3831.9532463879
 20
3679.1754665274
  0
VERTEX
  8
GSLAYER
 10
3831.2101425003
 20
3679.22462543
  0
SEQEND
  0
POLYLINE
  8
GSLAYER
 70
128
 66
1
  0
VERTEX
  8
GSLAYER
 10
3831.49233385
 20
3672.7979981636
  0
VERTEX
  8
GSLAYER
 10
3836.6658419281
 20
3672.7979981636
  0
VERTEX
  8
GSLAYER
 10
3836.6658419281
 20
3672.7596302396
  0
VERTEX
  8
GSLAYER
 10
3836.6011730771
 20
3672.1385494702
  0
VERTEX
  8
GSLAYER
 10
3836.4636047941
 20
3671.5222646913
  0
VERTEX
  8
GSLAYER
 10
3836.2531370791
 20
3670.9107759029
  0
VERTEX
  8
GSLAYER
 10
3835.9697699321
 20
3670.304083105
  0
VERTEX
  8
GSLAYER
 10
3835.560592475
 20
3669.6710123594
  0
VERTEX
  8
GSLAYER
 10
3835.0855703697
 20
3669.1146774617
  0
VERTEX
  8
GSLAYER
 10
3834.5447036161
 20
3668.6350784119
  0
VERTEX
  8
GSLAYER
 10
3833.9379922142
 20
3668.2322152102
  0
VERTEX
  8
GSLAYER
 10
3833.3500935689
 20
3667.9432567827
  0
VERTEX
  8
GSLAYER
 10
3832.7527885454
 20
3667.728636208
  0
VERTEX
  8
GSLAYER
 10
3832.1460771435
 20
3667.5883534859
  0
VERTEX
  8
GSLAYER
 10
3831.5299593633
 20
3667.5224086166
  0
VERTEX
  8
GSLAYER
 10
3831.49233385
 20
3667.5224086166
  0
VERTEX
  8
GSLAYER
 10
3831.49233385
 20
3672.7979981636
  0
SEQEND
  0
POLYLINE
  8
GSLAYER
 70
128
 66
1
  0
VERTEX
  8
GSLAYER
 10
3830.9279511506
 20
3672.7979981636
  0
VERTEX
  8
GSLAYER
 10
3830.9279511506
 20
3667.5224086166
  0
VERTEX
  8
GSLAYER
 10
3830.8903256373
 20
3667.5224086166
  0
VERTEX
  8
GSLAYER
 10
3830.2812626408
 20
3667.5883534859
  0
VERTEX
  8
GSLAYER
 10
3829.6769028335
 20
3667.728636208
  0
VERTEX
  8
GSLAYER
 10
3829.0772462153
 20
3667.9432567827
  0
VERTEX
  8
GSLAYER
 10
3828.4822927864
 20
3668.2322152102
  0
VERTEX
  8
GSLAYER
 10
3827.861471817
 20
3668.6494663834
  0
VERTEX
  8
GSLAYER
 10
3827.3159018742
 20
3669.1338614237
  0
VERTEX
  8
GSLAYER
 10
3826.845582958
 20
3669.6854003308
  0
VERTEX
  8
GSLAYER
 10
3826.4505150684
 20
3670.304083105
  0
VERTEX
  8
GSLAYER
 10
3826.1671479214
 20
3670.9035819172
  0
VERTEX
  8
GSLAYER
 10
3825.9566802064
 20
3671.5126727103
  0
VERTEX
  8
GSLAYER
 10
3825.8191119234
 20
3672.1313554845
  0
VERTEX
  8
GSLAYER
 10
3825.7544430724
 20
3672.7596302396
  0
VERTEX
  8
GSLAYER
 10
3825.7544430724
 20
3672.7979981636
  0
VERTEX
  8
GSLAYER
 10
3830.9279511506
 20
3672.7979981636
  0
SEQEND
  0
POLYLINE
  8
GSLAYER
 70
128
 66
1
  0
VERTEX
  8
GSLAYER
 10
3831.49233385
 20
3673.3735170233
  0
VERTEX
  8
GSLAYER
 10
3831.49233385
 20
3678.6491065703
  0
VERTEX
  8
GSLAYER
 10
3831.5299593633
 20
3678.6491065703
  0
VERTEX
  8
GSLAYER
 10
3832.1390223597
 20
3678.5831617009
  0
VERTEX
  8
GSLAYER
 10
3832.7433821671
 20
3678.4428789789
  0
VERTEX
  8
GSLAYER
 10
3833.3430387852
 20
3678.2282584041
  0
VERTEX
  8
GSLAYER
 10
3833.9379922142
 20
3677.9392999767
  0
VERTEX
  8
GSLAYER
 10
3834.5588131836
 20
3677.5220488034
  0
VERTEX
  8
GSLAYER
 10
3835.1043831263
 20
3677.0376537632
  0
VERTEX
  8
GSLAYER
 10
3835.5747020425
 20
3676.486114856
  0
VERTEX
  8
GSLAYER
 10
3835.9697699321
 20
3675.8674320819
  0
VERTEX
  8
GSLAYER
 10
3836.2531370791
 20
3675.2679332697
  0
VERTEX
  8
GSLAYER
 10
3836.4636047941
 20
3674.6588424765
  0
VERTEX
  8
GSLAYER
 10
3836.6011730771
 20
3674.0401597024
  0
VERTEX
  8
GSLAYER
 10
3836.6658419281
 20
3673.4118849472
  0
VERTEX
  8
GSLAYER
 10
3836.6658419281
 20
3673.3735170233
  0
VERTEX
  8
GSLAYER
 10
3831.49233385
 20
3673.3735170233
  0
SEQEND
  0
POLYLINE
  8
GSLAYER
 70
128
 66
1
  0
VERTEX
  8
GSLAYER
 10
3830.9279511506
 20
3673.3735170233
  0
VERTEX
  8
GSLAYER
 10
3825.7544430724
 20
3673.3735170233
  0
VERTEX
  8
GSLAYER
 10
3825.7544430724
 20
3673.4118849472
  0
VERTEX
  8
GSLAYER
 10
3825.8191119234
 20
3674.0329657166
  0
VERTEX
  8
GSLAYER
 10
3825.9566802064
 20
3674.6492504955
  0
VERTEX
  8
GSLAYER
 10
3826.1671479214
 20
3675.2607392839
  0
VERTEX
  8
GSLAYER
 10
3826.4505150684
 20
3675.8674320819
  0
VERTEX
  8
GSLAYER
 10
3826.8596925255
 20
3676.5005028275
  0
VERTEX
  8
GSLAYER
 10
3827.3347146308
 20
3677.0568377252
  0
VERTEX
  8
GSLAYER
 10
3827.8755813845
 20
3677.5364367749
  0
VERTEX
  8
GSLAYER
 10
3828.4822927864
 20
3677.9392999767
  0
VERTEX
  8
GSLAYER
 10
3829.0701914316
 20
3678.2282584041
  0
VERTEX
  8
GSLAYER
 10
3829.6674964552
 20
3678.4428789789
  0
VERTEX
  8
GSLAYER
 10
3830.274207857
 20
3678.5831617009
  0
VERTEX
  8
GSLAYER
 10
3830.8903256373
 20
3678.6491065703
  0
VERTEX
  8
GSLAYER
 10
3830.9279511506
 20
3678.6491065703
  0
VERTEX
  8
GSLAYER
 10
3830.9279511506
 20
3673.3735170233
  0
SEQEND
  0
POLYLINE
  8
GSLAYER
 70
128
 66
1
  0
VERTEX
  8
GSLAYER
 10
3864.5212636044
 20
3709.1686585437
  0
VERTEX
  8
GSLAYER
 10
3863.7722807304
 20
3709.1194996411
  0
VERTEX
  8
GSLAYER
 10
3863.0303526401
 20
3708.9720229333
  0
VERTEX
  8
GSLAYER
 10
3862.2954793335
 20
3708.7262284203
  0
VERTEX
  8
GSLAYER
 10
3861.5676608107
 20
3708.3821161021
  0
VERTEX
  8
GSLAYER
 10
3860.884522585
 20
3707.9384869811
  0
VERTEX
  8
GSLAYER
 10
3860.2836901695
 20
3707.4133260217
  0
VERTEX
  8
GSLAYER
 10
3859.7651635644
 20
3706.8066332238
  0
VERTEX
  8
GSLAYER
 10
3859.3289427697
 20
3706.1184085874
  0
VERTEX
  8
GSLAYER
 10
3859.1425788991
 20
3705.7509158156
  0
VERTEX
  8
GSLAYER
 10
3858.9785551771
 20
3705.3774280556
  0
VERTEX
  8
GSLAYER
 10
3858.8368716036
 20
3704.9979453075
  0
VERTEX
  8
GSLAYER
 10
3858.7175281786
 20
3704.6124675713
  0
VERTEX
  8
GSLAYER
 10
3858.6228764967
 20
3704.2221938446
  0
VERTEX
  8
GSLAYER
 10
3858.5552681525
 20
3703.828323125
  0
VERTEX
  8
GSLAYER
 10
3858.514703146
 20
3703.4308554125
  0
VERTEX
  8
GSLAYER
 10
3858.5011814772
 20
3703.0297907072
  0
VERTEX
  8
GSLAYER
 10
3858.5517407607
 20
3702.2660292205
  0
VERTEX
  8
GSLAYER
 10
3858.7034186111
 20
3701.5094617195
  0
VERTEX
  8
GSLAYER
 10
3858.9562150286
 20
3700.7600882043
  0
VERTEX
  8
GSLAYER
 10
3859.310130013
 20
3700.0179086749
  0
VERTEX
  8
GSLAYER
 10
3859.7604603753
 20
3699.3140970694
  0
VERTEX
  8
GSLAYER
 10
3860.2836901695
 20
3698.6990112881
  0
VERTEX
  8
GSLAYER
 10
3860.8798193958
 20
3698.172651331
  0
VERTEX
  8
GSLAYER
 10
3861.5488480541
 20
3697.7350171982
  0
VERTEX
  8
GSLAYER
 10
3861.9074662277
 20
3697.5527695593
  0
VERTEX
  8
GSLAYER
 10
3862.2684359959
 20
3697.3897058824
  0
VERTEX
  8
GSLAYER
 10
3862.6317573586
 20
3697.2458261674
  0
VERTEX
  8
GSLAYER
 10
3862.997430316
 20
3697.1211304145
  0
VERTEX
  8
GSLAYER
 10
3863.3678064625
 20
3697.0204146141
  0
VERTEX
  8
GSLAYER
 10
3863.7452373927
 20
3696.9484747566
  0
VERTEX
  8
GSLAYER
 10
3864.1297231067
 20
3696.9053108421
  0
VERTEX
  8
GSLAYER
 10
3864.5212636044
 20
3696.8909228706
  0
VERTEX
  8
GSLAYER
 10
3864.9133920008
 20
3696.9053108421
  0
VERTEX
  8
GSLAYER
 10
3865.2996414107
 20
3696.9484747566
  0
VERTEX
  8
GSLAYER
 10
3865.6800118342
 20
3697.0204146141
  0
VERTEX
  8
GSLAYER
 10
3866.0545032712
 20
3697.1211304145
  0
VERTEX
  8
GSLAYER
 10
3866.4242915191
 20
3697.2458261674
  0
VERTEX
  8
GSLAYER
 10
3866.790552375
 20
3697.3897058824
  0
VERTEX
  8
GSLAYER
 10
3867.1532858392
 20
3697.5527695593
  0
VERTEX
  8
GSLAYER
 10
3867.5124919114
 20
3697.7350171982
  0
VERTEX
  8
GSLAYER
 10
3868.1803447724
 20
3698.172651331
  0
VERTEX
  8
GSLAYER
 10
3868.7729466068
 20
3698.6990112881
  0
VERTEX
  8
GSLAYER
 10
3869.2902974146
 20
3699.3140970694
  0
VERTEX
  8
GSLAYER
 10
3869.7323971958
 20
3700.0179086749
  0
VERTEX
  8
GSLAYER
 10
3870.0863121803
 20
3700.7600882043
  0
VERTEX
  8
GSLAYER
 10
3870.3391085977
 20
3701.5094617195
  0
VERTEX
  8
GSLAYER
 10
3870.4907864482
 20
3702.2660292205
  0
VERTEX
  8
GSLAYER
 10
3870.5413457317
 20
3703.0297907072
  0
VERTEX
  8
GSLAYER
 10
3870.4907864482
 20
3703.8199301416
  0
VERTEX
  8
GSLAYER
 10
3870.3391085977
 20
3704.5980795998
  0
VERTEX
  8
GSLAYER
 10
3870.0863121803
 20
3705.3642390817
  0
VERTEX
  8
GSLAYER
 10
3869.7323971958
 20
3706.1184085874
  0
VERTEX
  8
GSLAYER
 10
3869.516638393
 20
3706.4733118842
  0
VERTEX
  8
GSLAYER
 10
3869.2832426309
 20
3706.809031219
  0
VERTEX
  8
GSLAYER
 10
3869.0322099093
 20
3707.1255665918
  0
VERTEX
  8
GSLAYER
 10
3868.7635402285
 20
3707.4229180027
  0
VERTEX
  8
GSLAYER
 10
3868.4760577909
 20
3707.6986874563
  0
VERTEX
  8
GSLAYER
 10
3868.1685867995
 20
3707.9504769574
  0
VERTEX
  8
GSLAYER
 10
3867.8411272541
 20
3708.178286506
  0
VERTEX
  8
GSLAYER
 10
3867.4936791547
 20
3708.3821161021
  0
VERTEX
  8
GSLAYER
 10
3866.7505752672
 20
3708.7262284203
  0
VERTEX
  8
GSLAYER
 10
3866.0074713796
 20
3708.9720229333
  0
VERTEX
  8
GSLAYER
 10
3865.264367492
 20
3709.1194996411
  0
VERTEX
  8
GSLAYER
 10
3864.5212636044
 20
3709.1686585437
  0
SEQEND
  0
POLYLINE
  8
GSLAYER
 70
128
 66
1
  0
VERTEX
  8
GSLAYER
 10
3864.8034549541
 20
3702.7420312773
  0
VERTEX
  8
GSLAYER
 10
3869.9769630322
 20
3702.7420312773
  0
VERTEX
  8
GSLAYER
 10
3869.9769630322
 20
3702.7036633533
  0
VERTEX
  8
GSLAYER
 10
3869.9122941813
 20
3702.0825825839
  0
VERTEX
  8
GSLAYER
 10
3869.7747258983
 20
3701.466297805
  0
VERTEX
  8
GSLAYER
 10
3869.5642581833
 20
3700.8548090166
  0
VERTEX
  8
GSLAYER
 10
3869.2808910363
 20
3700.2481162187
  0
VERTEX
  8
GSLAYER
 10
3868.8717135792
 20
3699.6150454731
  0
VERTEX
  8
GSLAYER
 10
3868.3966914738
 20
3699.0587105754
  0
VERTEX
  8
GSLAYER
 10
3867.8558247202
 20
3698.5791115257
  0
VERTEX
  8
GSLAYER
 10
3867.2491133183
 20
3698.1762483239
  0
VERTEX
  8
GSLAYER
 10
3866.6612146731
 20
3697.8872898964
  0
VERTEX
  8
GSLAYER
 10
3866.0639096495
 20
3697.6726693217
  0
VERTEX
  8
GSLAYER
 10
3865.4571982476
 20
3697.5323865996
  0
VERTEX
  8
GSLAYER
 10
3864.8410804674
 20
3697.4664417303
  0
VERTEX
  8
GSLAYER
 10
3864.8034549541
 20
3697.4664417303
  0
VERTEX
  8
GSLAYER
 10
3864.8034549541
 20
3702.7420312773
  0
SEQEND
  0
POLYLINE
  8
GSLAYER
 70
128
 66
1
  0
VERTEX
  8
GSLAYER
 10
3864.2390722547
 20
3702.7420312773
  0
VERTEX
  8
GSLAYER
 10
3864.2390722547
 20
3697.4664417303
  0
VERTEX
  8
GSLAYER
 10
3864.2014467414
 20
3697.4664417303
  0
VERTEX
  8
GSLAYER
 10
3863.5923837449
 20
3697.5323865996
  0
VERTEX
  8
GSLAYER
 10
3862.9880239376
 20
3697.6726693217
  0
VERTEX
  8
GSLAYER
 10
3862.3883673195
 20
3697.8872898964
  0
VERTEX
  8
GSLAYER
 10
3861.7934138905
 20
3698.1762483239
  0
VERTEX
  8
GSLAYER
 10
3861.1725929211
 20
3698.5934994972
  0
VERTEX
  8
GSLAYER
 10
3860.6270229783
 20
3699.0778945374
  0
VERTEX
  8
GSLAYER
 10
3860.1567040622
 20
3699.6294334446
  0
VERTEX
  8
GSLAYER
 10
3859.7616361726
 20
3700.2481162187
  0
VERTEX
  8
GSLAYER
 10
3859.4782690255
 20
3700.8476150309
  0
VERTEX
  8
GSLAYER
 10
3859.2678013106
 20
3701.4567058241
  0
VERTEX
  8
GSLAYER
 10
3859.1302330276
 20
3702.0753885982
  0
VERTEX
  8
GSLAYER
 10
3859.0655641766
 20
3702.7036633533
  0
VERTEX
  8
GSLAYER
 10
3859.0655641766
 20
3702.7420312773
  0
VERTEX
  8
GSLAYER
 10
3864.2390722547
 20
3702.7420312773
  0
SEQEND
  0
POLYLINE
  8
GSLAYER
 70
128
 66
1
  0
VERTEX
  8
GSLAYER
 10
3864.8034549541
 20
3703.317550137
  0
VERTEX
  8
GSLAYER
 10
3864.8034549541
 20
3708.593139684
  0
VERTEX
  8
GSLAYER
 10
3864.8410804674
 20
3708.593139684
  0
VERTEX
  8
GSLAYER
 10
3865.4501434639
 20
3708.5271948147
  0
VERTEX
  8
GSLAYER
 10
3866.0545032712
 20
3708.3869120926
  0
VERTEX
  8
GSLAYER
 10
3866.6541598893
 20
3708.1722915179
  0
VERTEX
  8
GSLAYER
 10
3867.2491133183
 20
3707.8833330904
  0
VERTEX
  8
GSLAYER
 10
3867.8699342877
 20
3707.4660819172
  0
VERTEX
  8
GSLAYER
 10
3868.4155042305
 20
3706.9816868769
  0
VERTEX
  8
GSLAYER
 10
3868.8858231467
 20
3706.4301479697
  0
VERTEX
  8
GSLAYER
 10
3869.2808910363
 20
3705.8114651956
  0
VERTEX
  8
GSLAYER
 10
3869.5642581833
 20
3705.2119663834
  0
VERTEX
  8
GSLAYER
 10
3869.7747258983
 20
3704.6028755903
  0
VERTEX
  8
GSLAYER
 10
3869.9122941813
 20
3703.9841928161
  0
VERTEX
  8
GSLAYER
 10
3869.9769630322
 20
3703.355918061
  0
VERTEX
  8
GSLAYER
 10
3869.9769630322
 20
3703.317550137
  0
VERTEX
  8
GSLAYER
 10
3864.8034549541
 20
3703.317550137
  0
SEQEND
  0
POLYLINE
  8
GSLAYER
 70
128
 66
1
  0
VERTEX
  8
GSLAYER
 10
3864.2390722547
 20
3703.317550137
  0
VERTEX
  8
GSLAYER
 10
3859.0655641766
 20
3703.317550137
  0
VERTEX
  8
GSLAYER
 10
3859.0655641766
 20
3703.355918061
  0
VERTEX
  8
GSLAYER
 10
3859.1302330276
 20
3703.9769988304
  0
VERTEX
  8
GSLAYER
 10
3859.2678013106
 20
3704.5932836093
  0
VERTEX
  8
GSLAYER
 10
3859.4782690255
 20
3705.2047723977
  0
VERTEX
  8
GSLAYER
 10
3859.7616361726
 20
3705.8114651956
  0
VERTEX
  8
GSLAYER
 10
3860.1708136296
 20
3706.4445359412
  0
VERTEX
  8
GSLAYER
 10
3860.645835735
 20
3707.0008708389
  0
VERTEX
  8
GSLAYER
 10
3861.1867024886
 20
3707.4804698886
  0
VERTEX
  8
GSLAYER
 10
3861.7934138905
 20
3707.8833330904
  0
VERTEX
  8
GSLAYER
 10
3862.3813125357
 20
3708.1722915179
  0
VERTEX
  8
GSLAYER
 10
3862.9786175593
 20
3708.3869120926
  0
VERTEX
  8
GSLAYER
 10
3863.5853289612
 20
3708.5271948147
  0
VERTEX
  8
GSLAYER
 10
3864.2014467414
 20
3708.593139684
  0
VERTEX
  8
GSLAYER
 10
3864.2390722547
 20
3708.593139684
  0
VERTEX
  8
GSLAYER
 10
3864.2390722547
 20
3703.317550137
  0
SEQEND
  0
POLYLINE
  8
GSLAYER
 70
128
 66
1
  0
VERTEX
  8
GSLAYER
 10
3927.8659055434
 20
3634.2062612954
  0
VERTEX
  8
GSLAYER
 10
3927.1169226694
 20
3634.1571023928
  0
VERTEX
  8
GSLAYER
 10
3926.3749945791
 20
3634.009625685
  0
VERTEX
  8
GSLAYER
 10
3925.6401212725
 20
3633.763831172
  0
VERTEX
  8
GSLAYER
 10
3924.9123027497
 20
3633.4197188538
  0
VERTEX
  8
GSLAYER
 10
3924.229164524
 20
3632.9760897328
  0
VERTEX
  8
GSLAYER
 10
3923.6283321085
 20
3632.4509287734
  0
VERTEX
  8
GSLAYER
 10
3923.1098055034
 20
3631.8442359755
  0
VERTEX
  8
GSLAYER
 10
3922.6735847087
 20
3631.1560113391
  0
VERTEX
  8
GSLAYER
 10
3922.4872208381
 20
3630.7885185673
  0
VERTEX
  8
GSLAYER
 10
3922.3231971161
 20
3630.4150308073
  0
VERTEX
  8
GSLAYER
 10
3922.1815135426
 20
3630.0355480592
  0
VERTEX
  8
GSLAYER
 10
3922.0621701176
 20
3629.650070323
  0
VERTEX
  8
GSLAYER
 10
3921.9675184357
 20
3629.2597965963
  0
VERTEX
  8
GSLAYER
 10
3921.8999100915
 20
3628.8659258767
  0
VERTEX
  8
GSLAYER
 10
3921.859345085
 20
3628.4684581642
  0
VERTEX
  8
GSLAYER
 10
3921.8458234162
 20
3628.0673934589
  0
VERTEX
  8
GSLAYER
 10
3921.8963826997
 20
3627.3036319722
  0
VERTEX
  8
GSLAYER
 10
3922.0480605501
 20
3626.5470644712
  0
VERTEX
  8
GSLAYER
 10
3922.3008569676
 20
3625.797690956
  0
VERTEX
  8
GSLAYER
 10
3922.654771952
 20
3625.0555114266
  0
VERTEX
  8
GSLAYER
 10
3923.1051023143
 20
3624.3516998211
  0
VERTEX
  8
GSLAYER
 10
3923.6283321085
 20
3623.7366140398
  0
VERTEX
  8
GSLAYER
 10
3924.2244613348
 20
3623.2102540827
  0
VERTEX
  8
GSLAYER
 10
3924.8934899931
 20
3622.7726199499
  0
VERTEX
  8
GSLAYER
 10
3925.2521081667
 20
3622.590372311
  0
VERTEX
  8
GSLAYER
 10
3925.6130779349
 20
3622.4273086341
  0
VERTEX
  8
GSLAYER
 10
3925.9763992976
 20
3622.2834289191
  0
VERTEX
  8
GSLAYER
 10
3926.342072255
 20
3622.1587331662
  0
VERTEX
  8
GSLAYER
 10
3926.7124484015
 20
3622.0580173658
  0
VERTEX
  8
GSLAYER
 10
3927.0898793317
 20
3621.9860775083
  0
VERTEX
  8
GSLAYER
 10
3927.4743650457
 20
3621.9429135938
  0
VERTEX
  8
GSLAYER
 10
3927.8659055434
 20
3621.9285256223
  0
VERTEX
  8
GSLAYER
 10
3928.2580339398
 20
3621.9429135938
  0
VERTEX
  8
GSLAYER
 10
3928.6442833497
 20
3621.9860775083
  0
VERTEX
  8
GSLAYER
 10
3929.0246537732
 20
3622.0580173658
  0
VERTEX
  8
GSLAYER
 10
3929.3991452102
 20
3622.1587331662
  0
VERTEX
  8
GSLAYER
 10
3929.7689334581
 20
3622.2834289191
  0
VERTEX
  8
GSLAYER
 10
3930.1351943141
 20
3622.4273086341
  0
VERTEX
  8
GSLAYER
 10
3930.4979277782
 20
3622.590372311
  0
VERTEX
  8
GSLAYER
 10
3930.8571338504
 20
3622.7726199499
  0
VERTEX
  8
GSLAYER
 10
3931.5249867114
 20
3623.2102540827
  0
VERTEX
  8
GSLAYER
 10
3932.1175885458
 20
3623.7366140398
  0
VERTEX
  8
GSLAYER
 10
3932.6349393536
 20
3624.3516998211
  0
VERTEX
  8
GSLAYER
 10
3933.0770391348
 20
3625.0555114266
  0
VERTEX
  8
GSLAYER
 10
3933.4309541193
 20
3625.797690956
  0
VERTEX
  8
GSLAYER
 10
3933.6837505367
 20
3626.5470644712
  0
VERTEX
  8
GSLAYER
 10
3933.8354283872
 20
3627.3036319722
  0
VERTEX
  8
GSLAYER
 10
3933.8859876707
 20
3628.0673934589
  0
VERTEX
  8
GSLAYER
 10
3933.8354283872
 20
3628.8575328933
  0
VERTEX
  8
GSLAYER
 10
3933.6837505367
 20
3629.6356823515
  0
VERTEX
  8
GSLAYER
 10
3933.4309541193
 20
3630.4018418334
  0
VERTEX
  8
GSLAYER
 10
3933.0770391348
 20
3631.1560113391
  0
VERTEX
  8
GSLAYER
 10
3932.861280332
 20
3631.5109146359
  0
VERTEX
  8
GSLAYER
 10
3932.6278845699
 20
3631.8466339707
  0
VERTEX
  8
GSLAYER
 10
3932.3768518484
 20
3632.1631693436
  0
VERTEX
  8
GSLAYER
 10
3932.1081821675
 20
3632.4605207544
  0
VERTEX
  8
GSLAYER
 10
3931.82069973
 20
3632.736290208
  0
VERTEX
  8
GSLAYER
 10
3931.5132287385
 20
3632.9880797091
  0
VERTEX
  8
GSLAYER
 10
3931.1857691931
 20
3633.2158892577
  0
VERTEX
  8
GSLAYER
 10
3930.8383210938
 20
3633.4197188538
  0
VERTEX
  8
GSLAYER
 10
3930.0952172062
 20
3633.763831172
  0
VERTEX
  8
GSLAYER
 10
3929.3521133186
 20
3634.009625685
  0
VERTEX
  8
GSLAYER
 10
3928.609009431
 20
3634.1571023928
  0
VERTEX
  8
GSLAYER
 10
3927.8659055434
 20
3634.2062612954
  0
SEQEND
  0
POLYLINE
  8
GSLAYER
 70
128
 66
1
  0
VERTEX
  8
GSLAYER
 10
3928.1480968931
 20
3627.779634029
  0
VERTEX
  8
GSLAYER
 10
3933.3216049713
 20
3627.779634029
  0
VERTEX
  8
GSLAYER
 10
3933.3216049713
 20
3627.7412661051
  0
VERTEX
  8
GSLAYER
 10
3933.2569361203
 20
3627.1201853357
  0
VERTEX
  8
GSLAYER
 10
3933.1193678373
 20
3626.5039005568
  0
VERTEX
  8
GSLAYER
 10
3932.9089001223
 20
3625.8924117684
  0
VERTEX
  8
GSLAYER
 10
3932.6255329753
 20
3625.2857189704
  0
VERTEX
  8
GSLAYER
 10
3932.2163555182
 20
3624.6526482248
  0
VERTEX
  8
GSLAYER
 10
3931.7413334128
 20
3624.0963133271
  0
VERTEX
  8
GSLAYER
 10
3931.2004666592
 20
3623.6167142774
  0
VERTEX
  8
GSLAYER
 10
3930.5937552573
 20
3623.2138510756
  0
VERTEX
  8
GSLAYER
 10
3930.0058566121
 20
3622.9248926482
  0
VERTEX
  8
GSLAYER
 10
3929.4085515885
 20
3622.7102720734
  0
VERTEX
  8
GSLAYER
 10
3928.8018401866
 20
3622.5699893514
  0
VERTEX
  8
GSLAYER
 10
3928.1857224064
 20
3622.504044482
  0
VERTEX
  8
GSLAYER
 10
3928.1480968931
 20
3622.504044482
  0
VERTEX
  8
GSLAYER
 10
3928.1480968931
 20
3627.779634029
  0
SEQEND
  0
POLYLINE
  8
GSLAYER
 70
128
 66
1
  0
VERTEX
  8
GSLAYER
 10
3927.5837141937
 20
3627.779634029
  0
VERTEX
  8
GSLAYER
 10
3927.5837141937
 20
3622.504044482
  0
VERTEX
  8
GSLAYER
 10
3927.5460886804
 20
3622.504044482
  0
VERTEX
  8
GSLAYER
 10
3926.9370256839
 20
3622.5699893514
  0
VERTEX
  8
GSLAYER
 10
3926.3326658766
 20
3622.7102720734
  0
VERTEX
  8
GSLAYER
 10
3925.7330092585
 20
3622.9248926482
  0
VERTEX
  8
GSLAYER
 10
3925.1380558295
 20
3623.2138510756
  0
VERTEX
  8
GSLAYER
 10
3924.5172348601
 20
3623.6311022489
  0
VERTEX
  8
GSLAYER
 10
3923.9716649174
 20
3624.1154972891
  0
VERTEX
  8
GSLAYER
 10
3923.5013460012
 20
3624.6670361963
  0
VERTEX
  8
GSLAYER
 10
3923.1062781116
 20
3625.2857189704
  0
VERTEX
  8
GSLAYER
 10
3922.8229109646
 20
3625.8852177826
  0
VERTEX
  8
GSLAYER
 10
3922.6124432496
 20
3626.4943085758
  0
VERTEX
  8
GSLAYER
 10
3922.4748749666
 20
3627.1129913499
  0
VERTEX
  8
GSLAYER
 10
3922.4102061156
 20
3627.7412661051
  0
VERTEX
  8
GSLAYER
 10
3922.4102061156
 20
3627.779634029
  0
VERTEX
  8
GSLAYER
 10
3927.5837141937
 20
3627.779634029
  0
SEQEND
  0
POLYLINE
  8
GSLAYER
 70
128
 66
1
  0
VERTEX
  8
GSLAYER
 10
3928.1480968931
 20
3628.3551528887
  0
VERTEX
  8
GSLAYER
 10
3928.1480968931
 20
3633.6307424357
  0
VERTEX
  8
GSLAYER
 10
3928.1857224064
 20
3633.6307424357
  0
VERTEX
  8
GSLAYER
 10
3928.7947854029
 20
3633.5647975664
  0
VERTEX
  8
GSLAYER
 10
3929.3991452102
 20
3633.4245148443
  0
VERTEX
  8
GSLAYER
 10
3929.9988018284
 20
3633.2098942696
  0
VERTEX
  8
GSLAYER
 10
3930.5937552573
 20
3632.9209358421
  0
VERTEX
  8
GSLAYER
 10
3931.2145762267
 20
3632.5036846689
  0
VERTEX
  8
GSLAYER
 10
3931.7601461695
 20
3632.0192896286
  0
VERTEX
  8
GSLAYER
 10
3932.2304650857
 20
3631.4677507214
  0
VERTEX
  8
GSLAYER
 10
3932.6255329753
 20
3630.8490679473
  0
VERTEX
  8
GSLAYER
 10
3932.9089001223
 20
3630.2495691351
  0
VERTEX
  8
GSLAYER
 10
3933.1193678373
 20
3629.640478342
  0
VERTEX
  8
GSLAYER
 10
3933.2569361203
 20
3629.0217955678
  0
VERTEX
  8
GSLAYER
 10
3933.3216049713
 20
3628.3935208127
  0
VERTEX
  8
GSLAYER
 10
3933.3216049713
 20
3628.3551528887
  0
VERTEX
  8
GSLAYER
 10
3928.1480968931
 20
3628.3551528887
  0
SEQEND
  0
POLYLINE
  8
GSLAYER
 70
128
 66
1
  0
VERTEX
  8
GSLAYER
 10
3927.5837141937
 20
3628.3551528887
  0
VERTEX
  8
GSLAYER
 10
3922.4102061156
 20
3628.3551528887
  0
VERTEX
  8
GSLAYER
 10
3922.4102061156
 20
3628.3935208127
  0
VERTEX
  8
GSLAYER
 10
3922.4748749666
 20
3629.0146015821
  0
VERTEX
  8
GSLAYER
 10
3922.6124432496
 20
3629.630886361
  0
VERTEX
  8
GSLAYER
 10
3922.8229109646
 20
3630.2423751494
  0
VERTEX
  8
GSLAYER
 10
3923.1062781116
 20
3630.8490679473
  0
VERTEX
  8
GSLAYER
 10
3923.5154555687
 20
3631.4821386929
  0
VERTEX
  8
GSLAYER
 10
3923.990477674
 20
3632.0384735906
  0
VERTEX
  8
GSLAYER
 10
3924.5313444276
 20
3632.5180726404
  0
VERTEX
  8
GSLAYER
 10
3925.1380558295
 20
3632.9209358421
  0
VERTEX
  8
GSLAYER
 10
3925.7259544748
 20
3633.2098942696
  0
VERTEX
  8
GSLAYER
 10
3926.3232594983
 20
3633.4245148443
  0
VERTEX
  8
GSLAYER
 10
3926.9299709002
 20
3633.5647975664
  0
VERTEX
  8
GSLAYER
 10
3927.5460886804
 20
3633.6307424357
  0
VERTEX
  8
GSLAYER
 10
3927.5837141937
 20
3633.6307424357
  0
VERTEX
  8
GSLAYER
 10
3927.5837141937
 20
3628.3551528887
  0
SEQEND
  0
POLYLINE
  8
GSLAYER
 70
128
 66
1
  0
VERTEX
  8
GSLAYER
 10
4045.0568376207
 20
3356.1837579432
  0
VERTEX
  8
GSLAYER
 10
4044.3078547466
 20
3356.1345990406
  0
VERTEX
  8
GSLAYER
 10
4043.5659266563
 20
3355.9871223328
  0
VERTEX
  8
GSLAYER
 10
4042.8310533498
 20
3355.7413278199
  0
VERTEX
  8
GSLAYER
 10
4042.103234827
 20
3355.3972155017
  0
VERTEX
  8
GSLAYER
 10
4041.4200966012
 20
3354.9535863807
  0
VERTEX
  8
GSLAYER
 10
4040.8192641858
 20
3354.4284254212
  0
VERTEX
  8
GSLAYER
 10
4040.3007375807
 20
3353.8217326233
  0
VERTEX
  8
GSLAYER
 10
4039.8645167859
 20
3353.133507987
  0
VERTEX
  8
GSLAYER
 10
4039.6781529154
 20
3352.7660152151
  0
VERTEX
  8
GSLAYER
 10
4039.5141291933
 20
3352.3925274551
  0
VERTEX
  8
GSLAYER
 10
4039.3724456198
 20
3352.013044707
  0
VERTEX
  8
GSLAYER
 10
4039.2531021949
 20
3351.6275669708
  0
VERTEX
  8
GSLAYER
 10
4039.158450513
 20
3351.2372932441
  0
VERTEX
  8
GSLAYER
 10
4039.0908421688
 20
3350.8434225245
  0
VERTEX
  8
GSLAYER
 10
4039.0502771623
 20
3350.445954812
  0
VERTEX
  8
GSLAYER
 10
4039.0367554934
 20
3350.0448901067
  0
VERTEX
  8
GSLAYER
 10
4039.0873147769
 20
3349.28112862
  0
VERTEX
  8
GSLAYER
 10
4039.2389926274
 20
3348.5245611191
  0
VERTEX
  8
GSLAYER
 10
4039.4917890448
 20
3347.7751876039
  0
VERTEX
  8
GSLAYER
 10
4039.8457040293
 20
3347.0330080744
  0
VERTEX
  8
GSLAYER
 10
4040.2960343915
 20
3346.3291964689
  0
VERTEX
  8
GSLAYER
 10
4040.8192641858
 20
3345.7141106876
  0
VERTEX
  8
GSLAYER
 10
4041.4153934121
 20
3345.1877507306
  0
VERTEX
  8
GSLAYER
 10
4042.0844220703
 20
3344.7501165977
  0
VERTEX
  8
GSLAYER
 10
4042.4430402439
 20
3344.5678689588
  0
VERTEX
  8
GSLAYER
 10
4042.8040100121
 20
3344.4048052819
  0
VERTEX
  8
GSLAYER
 10
4043.1673313749
 20
3344.260925567
  0
VERTEX
  8
GSLAYER
 10
4043.5330043322
 20
3344.136229814
  0
VERTEX
  8
GSLAYER
 10
4043.9033804787
 20
3344.0355140136
  0
VERTEX
  8
GSLAYER
 10
4044.280811409
 20
3343.9635741561
  0
VERTEX
  8
GSLAYER
 10
4044.6652971229
 20
3343.9204102417
  0
VERTEX
  8
GSLAYER
 10
4045.0568376207
 20
3343.9060222702
  0
VERTEX
  8
GSLAYER
 10
4045.448966017
 20
3343.9204102417
  0
VERTEX
  8
GSLAYER
 10
4045.835215427
 20
3343.9635741561
  0
VERTEX
  8
GSLAYER
 10
4046.2155858504
 20
3344.0355140136
  0
VERTEX
  8
GSLAYER
 10
4046.5900772875
 20
3344.136229814
  0
VERTEX
  8
GSLAYER
 10
4046.9598655353
 20
3344.260925567
  0
VERTEX
  8
GSLAYER
 10
4047.3261263913
 20
3344.4048052819
  0
VERTEX
  8
GSLAYER
 10
4047.6888598554
 20
3344.5678689588
  0
VERTEX
  8
GSLAYER
 10
4048.0480659276
 20
3344.7501165977
  0
VERTEX
  8
GSLAYER
 10
4048.7159187886
 20
3345.1877507306
  0
VERTEX
  8
GSLAYER
 10
4049.308520623
 20
3345.7141106876
  0
VERTEX
  8
GSLAYER
 10
4049.8258714309
 20
3346.3291964689
  0
VERTEX
  8
GSLAYER
 10
4050.2679712121
 20
3347.0330080744
  0
VERTEX
  8
GSLAYER
 10
4050.6218861965
 20
3347.7751876039
  0
VERTEX
  8
GSLAYER
 10
4050.874682614
 20
3348.5245611191
  0
VERTEX
  8
GSLAYER
 10
4051.0263604644
 20
3349.28112862
  0
VERTEX
  8
GSLAYER
 10
4051.0769197479
 20
3350.0448901067
  0
VERTEX
  8
GSLAYER
 10
4051.0263604644
 20
3350.8350295411
  0
VERTEX
  8
GSLAYER
 10
4050.874682614
 20
3351.6131789993
  0
VERTEX
  8
GSLAYER
 10
4050.6218861965
 20
3352.3793384813
  0
VERTEX
  8
GSLAYER
 10
4050.2679712121
 20
3353.133507987
  0
VERTEX
  8
GSLAYER
 10
4050.0522124093
 20
3353.4884112838
  0
VERTEX
  8
GSLAYER
 10
4049.8188166471
 20
3353.8241306186
  0
VERTEX
  8
GSLAYER
 10
4049.5677839256
 20
3354.1406659914
  0
VERTEX
  8
GSLAYER
 10
4049.2991142447
 20
3354.4380174022
  0
VERTEX
  8
GSLAYER
 10
4049.0116318072
 20
3354.7137868558
  0
VERTEX
  8
GSLAYER
 10
4048.7041608157
 20
3354.9655763569
  0
VERTEX
  8
GSLAYER
 10
4048.3767012703
 20
3355.1933859055
  0
VERTEX
  8
GSLAYER
 10
4048.029253171
 20
3355.3972155017
  0
VERTEX
  8
GSLAYER
 10
4047.2861492834
 20
3355.7413278199
  0
VERTEX
  8
GSLAYER
 10
4046.5430453958
 20
3355.9871223328
  0
VERTEX
  8
GSLAYER
 10
4045.7999415083
 20
3356.1345990406
  0
VERTEX
  8
GSLAYER
 10
4045.0568376207
 20
3356.1837579432
  0
SEQEND
  0
POLYLINE
  8
GSLAYER
 70
128
 66
1
  0
VERTEX
  8
GSLAYER
 10
4045.3390289704
 20
3349.7571306769
  0
VERTEX
  8
GSLAYER
 10
4050.5125370485
 20
3349.7571306769
  0
VERTEX
  8
GSLAYER
 10
4050.5125370485
 20
3349.7187627529
  0
VERTEX
  8
GSLAYER
 10
4050.4478681975
 20
3349.0976819835
  0
VERTEX
  8
GSLAYER
 10
4050.3102999145
 20
3348.4813972046
  0
VERTEX
  8
GSLAYER
 10
4050.0998321995
 20
3347.8699084162
  0
VERTEX
  8
GSLAYER
 10
4049.8164650525
 20
3347.2632156183
  0
VERTEX
  8
GSLAYER
 10
4049.4072875954
 20
3346.6301448726
  0
VERTEX
  8
GSLAYER
 10
4048.9322654901
 20
3346.0738099749
  0
VERTEX
  8
GSLAYER
 10
4048.3913987365
 20
3345.5942109252
  0
VERTEX
  8
GSLAYER
 10
4047.7846873346
 20
3345.1913477234
  0
VERTEX
  8
GSLAYER
 10
4047.1967886893
 20
3344.902389296
  0
VERTEX
  8
GSLAYER
 10
4046.5994836658
 20
3344.6877687212
  0
VERTEX
  8
GSLAYER
 10
4045.9927722639
 20
3344.5474859992
  0
VERTEX
  8
GSLAYER
 10
4045.3766544837
 20
3344.4815411298
  0
VERTEX
  8
GSLAYER
 10
4045.3390289704
 20
3344.4815411298
  0
VERTEX
  8
GSLAYER
 10
4045.3390289704
 20
3349.7571306769
  0
SEQEND
  0
POLYLINE
  8
GSLAYER
 70
128
 66
1
  0
VERTEX
  8
GSLAYER
 10
4044.774646271
 20
3349.7571306769
  0
VERTEX
  8
GSLAYER
 10
4044.774646271
 20
3344.4815411298
  0
VERTEX
  8
GSLAYER
 10
4044.7370207577
 20
3344.4815411298
  0
VERTEX
  8
GSLAYER
 10
4044.1279577612
 20
3344.5474859992
  0
VERTEX
  8
GSLAYER
 10
4043.5235979539
 20
3344.6877687212
  0
VERTEX
  8
GSLAYER
 10
4042.9239413357
 20
3344.902389296
  0
VERTEX
  8
GSLAYER
 10
4042.3289879068
 20
3345.1913477234
  0
VERTEX
  8
GSLAYER
 10
4041.7081669374
 20
3345.6085988967
  0
VERTEX
  8
GSLAYER
 10
4041.1625969946
 20
3346.0929939369
  0
VERTEX
  8
GSLAYER
 10
4040.6922780784
 20
3346.6445328441
  0
VERTEX
  8
GSLAYER
 10
4040.2972101888
 20
3347.2632156183
  0
VERTEX
  8
GSLAYER
 10
4040.0138430418
 20
3347.8627144304
  0
VERTEX
  8
GSLAYER
 10
4039.8033753268
 20
3348.4718052236
  0
VERTEX
  8
GSLAYER
 10
4039.6658070438
 20
3349.0904879977
  0
VERTEX
  8
GSLAYER
 10
4039.6011381928
 20
3349.7187627529
  0
VERTEX
  8
GSLAYER
 10
4039.6011381928
 20
3349.7571306769
  0
VERTEX
  8
GSLAYER
 10
4044.774646271
 20
3349.7571306769
  0
SEQEND
  0
POLYLINE
  8
GSLAYER
 70
128
 66
1
  0
VERTEX
  8
GSLAYER
 10
4045.3390289704
 20
3350.3326495365
  0
VERTEX
  8
GSLAYER
 10
4045.3390289704
 20
3355.6082390836
  0
VERTEX
  8
GSLAYER
 10
4045.3766544837
 20
3355.6082390836
  0
VERTEX
  8
GSLAYER
 10
4045.9857174801
 20
3355.5422942142
  0
VERTEX
  8
GSLAYER
 10
4046.5900772875
 20
3355.4020114922
  0
VERTEX
  8
GSLAYER
 10
4047.1897339056
 20
3355.1873909174
  0
VERTEX
  8
GSLAYER
 10
4047.7846873346
 20
3354.89843249
  0
VERTEX
  8
GSLAYER
 10
4048.405508304
 20
3354.4811813167
  0
VERTEX
  8
GSLAYER
 10
4048.9510782467
 20
3353.9967862765
  0
VERTEX
  8
GSLAYER
 10
4049.4213971629
 20
3353.4452473693
  0
VERTEX
  8
GSLAYER
 10
4049.8164650525
 20
3352.8265645951
  0
VERTEX
  8
GSLAYER
 10
4050.0998321995
 20
3352.227065783
  0
VERTEX
  8
GSLAYER
 10
4050.3102999145
 20
3351.6179749898
  0
VERTEX
  8
GSLAYER
 10
4050.4478681975
 20
3350.9992922157
  0
VERTEX
  8
GSLAYER
 10
4050.5125370485
 20
3350.3710174605
  0
VERTEX
  8
GSLAYER
 10
4050.5125370485
 20
3350.3326495365
  0
VERTEX
  8
GSLAYER
 10
4045.3390289704
 20
3350.3326495365
  0
SEQEND
  0
POLYLINE
  8
GSLAYER
 70
128
 66
1
  0
VERTEX
  8
GSLAYER
 10
4044.774646271
 20
3350.3326495365
  0
VERTEX
  8
GSLAYER
 10
4039.6011381928
 20
3350.3326495365
  0
VERTEX
  8
GSLAYER
 10
4039.6011381928
 20
3350.3710174605
  0
VERTEX
  8
GSLAYER
 10
4039.6658070438
 20
3350.9920982299
  0
VERTEX
  8
GSLAYER
 10
4039.8033753268
 20
3351.6083830088
  0
VERTEX
  8
GSLAYER
 10
4040.0138430418
 20
3352.2198717972
  0
VERTEX
  8
GSLAYER
 10
4040.2972101888
 20
3352.8265645951
  0
VERTEX
  8
GSLAYER
 10
4040.7063876459
 20
3353.4596353408
  0
VERTEX
  8
GSLAYER
 10
4041.1814097512
 20
3354.0159702385
  0
VERTEX
  8
GSLAYER
 10
4041.7222765049
 20
3354.4955692882
  0
VERTEX
  8
GSLAYER
 10
4042.3289879068
 20
3354.89843249
  0
VERTEX
  8
GSLAYER
 10
4042.916886552
 20
3355.1873909174
  0
VERTEX
  8
GSLAYER
 10
4043.5141915756
 20
3355.4020114922
  0
VERTEX
  8
GSLAYER
 10
4044.1209029774
 20
3355.5422942142
  0
VERTEX
  8
GSLAYER
 10
4044.7370207577
 20
3355.6082390836
  0
VERTEX
  8
GSLAYER
 10
4044.774646271
 20
3355.6082390836
  0
VERTEX
  8
GSLAYER
 10
4044.774646271
 20
3350.3326495365
  0
SEQEND
  0
POLYLINE
  8
GSLAYER
 70
128
 66
1
  0
VERTEX
  8
GSLAYER
 10
4233.9536368137
 20
3550.3766105055
  0
VERTEX
  8
GSLAYER
 10
4233.2046539396
 20
3550.3274516029
  0
VERTEX
  8
GSLAYER
 10
4232.4627258493
 20
3550.1799748951
  0
VERTEX
  8
GSLAYER
 10
4231.7278525428
 20
3549.9341803821
  0
VERTEX
  8
GSLAYER
 10
4231.00003402
 20
3549.5900680639
  0
VERTEX
  8
GSLAYER
 10
4230.3168957942
 20
3549.1464389429
  0
VERTEX
  8
GSLAYER
 10
4229.7160633788
 20
3548.6212779834
  0
VERTEX
  8
GSLAYER
 10
4229.1975367737
 20
3548.0145851855
  0
VERTEX
  8
GSLAYER
 10
4228.7613159789
 20
3547.3263605492
  0
VERTEX
  8
GSLAYER
 10
4228.5749521084
 20
3546.9588677773
  0
VERTEX
  8
GSLAYER
 10
4228.4109283863
 20
3546.5853800173
  0
VERTEX
  8
GSLAYER
 10
4228.2692448128
 20
3546.2058972693
  0
VERTEX
  8
GSLAYER
 10
4228.1499013879
 20
3545.820419533
  0
VERTEX
  8
GSLAYER
 10
4228.055249706
 20
3545.4301458063
  0
VERTEX
  8
GSLAYER
 10
4227.9876413618
 20
3545.0362750867
  0
VERTEX
  8
GSLAYER
 10
4227.9470763552
 20
3544.6388073743
  0
VERTEX
  8
GSLAYER
 10
4227.9335546864
 20
3544.2377426689
  0
VERTEX
  8
GSLAYER
 10
4227.9841139699
 20
3543.4739811822
  0
VERTEX
  8
GSLAYER
 10
4228.1357918204
 20
3542.7174136813
  0
VERTEX
  8
GSLAYER
 10
4228.3885882378
 20
3541.9680401661
  0
VERTEX
  8
GSLAYER
 10
4228.7425032223
 20
3541.2258606366
  0
VERTEX
  8
GSLAYER
 10
4229.1928335845
 20
3540.5220490312
  0
VERTEX
  8
GSLAYER
 10
4229.7160633788
 20
3539.9069632499
  0
VERTEX
  8
GSLAYER
 10
4230.312192605
 20
3539.3806032928
  0
VERTEX
  8
GSLAYER
 10
4230.9812212633
 20
3538.9429691599
  0
VERTEX
  8
GSLAYER
 10
4231.3398394369
 20
3538.760721521
  0
VERTEX
  8
GSLAYER
 10
4231.7008092051
 20
3538.5976578441
  0
VERTEX
  8
GSLAYER
 10
4232.0641305679
 20
3538.4537781292
  0
VERTEX
  8
GSLAYER
 10
4232.4298035252
 20
3538.3290823763
  0
VERTEX
  8
GSLAYER
 10
4232.8001796717
 20
3538.2283665758
  0
VERTEX
  8
GSLAYER
 10
4233.1776106019
 20
3538.1564267184
  0
VERTEX
  8
GSLAYER
 10
4233.5620963159
 20
3538.1132628039
  0
VERTEX
  8
GSLAYER
 10
4233.9536368137
 20
3538.0988748324
  0
VERTEX
  8
GSLAYER
 10
4234.34576521
 20
3538.1132628039
  0
VERTEX
  8
GSLAYER
 10
4234.73201462
 20
3538.1564267184
  0
VERTEX
  8
GSLAYER
 10
4235.1123850434
 20
3538.2283665758
  0
VERTEX
  8
GSLAYER
 10
4235.4868764804
 20
3538.3290823763
  0
VERTEX
  8
GSLAYER
 10
4235.8566647283
 20
3538.4537781292
  0
VERTEX
  8
GSLAYER
 10
4236.2229255843
 20
3538.5976578441
  0
VERTEX
  8
GSLAYER
 10
4236.5856590484
 20
3538.760721521
  0
VERTEX
  8
GSLAYER
 10
4236.9448651206
 20
3538.9429691599
  0
VERTEX
  8
GSLAYER
 10
4237.6127179816
 20
3539.3806032928
  0
VERTEX
  8
GSLAYER
 10
4238.205319816
 20
3539.9069632499
  0
VERTEX
  8
GSLAYER
 10
4238.7226706238
 20
3540.5220490312
  0
VERTEX
  8
GSLAYER
 10
4239.1647704051
 20
3541.2258606366
  0
VERTEX
  8
GSLAYER
 10
4239.5186853895
 20
3541.9680401661
  0
VERTEX
  8
GSLAYER
 10
4239.771481807
 20
3542.7174136813
  0
VERTEX
  8
GSLAYER
 10
4239.9231596574
 20
3543.4739811822
  0
VERTEX
  8
GSLAYER
 10
4239.9737189409
 20
3544.2377426689
  0
VERTEX
  8
GSLAYER
 10
4239.9231596574
 20
3545.0278821034
  0
VERTEX
  8
GSLAYER
 10
4239.771481807
 20
3545.8060315615
  0
VERTEX
  8
GSLAYER
 10
4239.5186853895
 20
3546.5721910435
  0
VERTEX
  8
GSLAYER
 10
4239.1647704051
 20
3547.3263605492
  0
VERTEX
  8
GSLAYER
 10
4238.9490116023
 20
3547.681263846
  0
VERTEX
  8
GSLAYER
 10
4238.7156158401
 20
3548.0169831808
  0
VERTEX
  8
GSLAYER
 10
4238.4645831186
 20
3548.3335185536
  0
VERTEX
  8
GSLAYER
 10
4238.1959134377
 20
3548.6308699644
  0
VERTEX
  8
GSLAYER
 10
4237.9084310002
 20
3548.906639418
  0
VERTEX
  8
GSLAYER
 10
4237.6009600087
 20
3549.1584289191
  0
VERTEX
  8
GSLAYER
 10
4237.2735004633
 20
3549.3862384678
  0
VERTEX
  8
GSLAYER
 10
4236.926052364
 20
3549.5900680639
  0
VERTEX
  8
GSLAYER
 10
4236.1829484764
 20
3549.9341803821
  0
VERTEX
  8
GSLAYER
 10
4235.4398445888
 20
3550.1799748951
  0
VERTEX
  8
GSLAYER
 10
4234.6967407012
 20
3550.3274516029
  0
VERTEX
  8
GSLAYER
 10
4233.9536368137
 20
3550.3766105055
  0
SEQEND
  0
POLYLINE
  8
GSLAYER
 70
128
 66
1
  0
VERTEX
  8
GSLAYER
 10
4234.2358281634
 20
3543.9499832391
  0
VERTEX
  8
GSLAYER
 10
4239.4093362415
 20
3543.9499832391
  0
VERTEX
  8
GSLAYER
 10
4239.4093362415
 20
3543.9116153151
  0
VERTEX
  8
GSLAYER
 10
4239.3446673905
 20
3543.2905345457
  0
VERTEX
  8
GSLAYER
 10
4239.2070991075
 20
3542.6742497668
  0
VERTEX
  8
GSLAYER
 10
4238.9966313925
 20
3542.0627609784
  0
VERTEX
  8
GSLAYER
 10
4238.7132642455
 20
3541.4560681805
  0
VERTEX
  8
GSLAYER
 10
4238.3040867884
 20
3540.8229974349
  0
VERTEX
  8
GSLAYER
 10
4237.8290646831
 20
3540.2666625372
  0
VERTEX
  8
GSLAYER
 10
4237.2881979295
 20
3539.7870634874
  0
VERTEX
  8
GSLAYER
 10
4236.6814865276
 20
3539.3842002857
  0
VERTEX
  8
GSLAYER
 10
4236.0935878823
 20
3539.0952418582
  0
VERTEX
  8
GSLAYER
 10
4235.4962828588
 20
3538.8806212835
  0
VERTEX
  8
GSLAYER
 10
4234.8895714569
 20
3538.7403385614
  0
VERTEX
  8
GSLAYER
 10
4234.2734536767
 20
3538.6743936921
  0
VERTEX
  8
GSLAYER
 10
4234.2358281634
 20
3538.6743936921
  0
VERTEX
  8
GSLAYER
 10
4234.2358281634
 20
3543.9499832391
  0
SEQEND
  0
POLYLINE
  8
GSLAYER
 70
128
 66
1
  0
VERTEX
  8
GSLAYER
 10
4233.6714454639
 20
3543.9499832391
  0
VERTEX
  8
GSLAYER
 10
4233.6714454639
 20
3538.6743936921
  0
VERTEX
  8
GSLAYER
 10
4233.6338199507
 20
3538.6743936921
  0
VERTEX
  8
GSLAYER
 10
4233.0247569542
 20
3538.7403385614
  0
VERTEX
  8
GSLAYER
 10
4232.4203971469
 20
3538.8806212835
  0
VERTEX
  8
GSLAYER
 10
4231.8207405287
 20
3539.0952418582
  0
VERTEX
  8
GSLAYER
 10
4231.2257870998
 20
3539.3842002857
  0
VERTEX
  8
GSLAYER
 10
4230.6049661304
 20
3539.8014514589
  0
VERTEX
  8
GSLAYER
 10
4230.0593961876
 20
3540.2858464992
  0
VERTEX
  8
GSLAYER
 10
4229.5890772714
 20
3540.8373854063
  0
VERTEX
  8
GSLAYER
 10
4229.1940093818
 20
3541.4560681805
  0
VERTEX
  8
GSLAYER
 10
4228.9106422348
 20
3542.0555669927
  0
VERTEX
  8
GSLAYER
 10
4228.7001745198
 20
3542.6646577858
  0
VERTEX
  8
GSLAYER
 10
4228.5626062368
 20
3543.28334056
  0
VERTEX
  8
GSLAYER
 10
4228.4979373858
 20
3543.9116153151
  0
VERTEX
  8
GSLAYER
 10
4228.4979373858
 20
3543.9499832391
  0
VERTEX
  8
GSLAYER
 10
4233.6714454639
 20
3543.9499832391
  0
SEQEND
  0
POLYLINE
  8
GSLAYER
 70
128
 66
1
  0
VERTEX
  8
GSLAYER
 10
4234.2358281634
 20
3544.5255020988
  0
VERTEX
  8
GSLAYER
 10
4234.2358281634
 20
3549.8010916458
  0
VERTEX
  8
GSLAYER
 10
4234.2734536767
 20
3549.8010916458
  0
VERTEX
  8
GSLAYER
 10
4234.8825166731
 20
3549.7351467764
  0
VERTEX
  8
GSLAYER
 10
4235.4868764804
 20
3549.5948640544
  0
VERTEX
  8
GSLAYER
 10
4236.0865330986
 20
3549.3802434796
  0
VERTEX
  8
GSLAYER
 10
4236.6814865276
 20
3549.0912850522
  0
VERTEX
  8
GSLAYER
 10
4237.3023074969
 20
3548.6740338789
  0
VERTEX
  8
GSLAYER
 10
4237.8478774397
 20
3548.1896388387
  0
VERTEX
  8
GSLAYER
 10
4238.3181963559
 20
3547.6380999315
  0
VERTEX
  8
GSLAYER
 10
4238.7132642455
 20
3547.0194171574
  0
VERTEX
  8
GSLAYER
 10
4238.9966313925
 20
3546.4199183452
  0
VERTEX
  8
GSLAYER
 10
4239.2070991075
 20
3545.810827552
  0
VERTEX
  8
GSLAYER
 10
4239.3446673905
 20
3545.1921447779
  0
VERTEX
  8
GSLAYER
 10
4239.4093362415
 20
3544.5638700227
  0
VERTEX
  8
GSLAYER
 10
4239.4093362415
 20
3544.5255020988
  0
VERTEX
  8
GSLAYER
 10
4234.2358281634
 20
3544.5255020988
  0
SEQEND
  0
POLYLINE
  8
GSLAYER
 70
128
 66
1
  0
VERTEX
  8
GSLAYER
 10
4233.6714454639
 20
3544.5255020988
  0
VERTEX
  8
GSLAYER
 10
4228.4979373858
 20
3544.5255020988
  0
VERTEX
  8
GSLAYER
 10
4228.4979373858
 20
3544.5638700227
  0
VERTEX
  8
GSLAYER
 10
4228.5626062368
 20
3545.1849507921
  0
VERTEX
  8
GSLAYER
 10
4228.7001745198
 20
3545.801235571
  0
VERTEX
  8
GSLAYER
 10
4228.9106422348
 20
3546.4127243594
  0
VERTEX
  8
GSLAYER
 10
4229.1940093818
 20
3547.0194171574
  0
VERTEX
  8
GSLAYER
 10
4229.6031868389
 20
3547.652487903
  0
VERTEX
  8
GSLAYER
 10
4230.0782089442
 20
3548.2088228007
  0
VERTEX
  8
GSLAYER
 10
4230.6190756979
 20
3548.6884218504
  0
VERTEX
  8
GSLAYER
 10
4231.2257870998
 20
3549.0912850522
  0
VERTEX
  8
GSLAYER
 10
4231.813685745
 20
3549.3802434796
  0
VERTEX
  8
GSLAYER
 10
4232.4109907686
 20
3549.5948640544
  0
VERTEX
  8
GSLAYER
 10
4233.0177021704
 20
3549.7351467764
  0
VERTEX
  8
GSLAYER
 10
4233.6338199507
 20
3549.8010916458
  0
VERTEX
  8
GSLAYER
 10
4233.6714454639
 20
3549.8010916458
  0
VERTEX
  8
GSLAYER
 10
4233.6714454639
 20
3544.5255020988
  0
SEQEND
  0
POLYLINE
  8
GSLAYER
 70
128
 66
1
  0
VERTEX
  8
GSLAYER
 10
4137.6323227776
 20
3679.9749314989
  0
VERTEX
  8
GSLAYER
 10
4136.8833399035
 20
3679.9257725963
  0
VERTEX
  8
GSLAYER
 10
4136.1414118132
 20
3679.7782958885
  0
VERTEX
  8
GSLAYER
 10
4135.4065385067
 20
3679.5325013755
  0
VERTEX
  8
GSLAYER
 10
4134.6787199839
 20
3679.1883890573
  0
VERTEX
  8
GSLAYER
 10
4133.9955817581
 20
3678.7447599363
  0
VERTEX
  8
GSLAYER
 10
4133.3947493427
 20
3678.2195989769
  0
VERTEX
  8
GSLAYER
 10
4132.8762227376
 20
3677.6129061789
  0
VERTEX
  8
GSLAYER
 10
4132.4400019428
 20
3676.9246815426
  0
VERTEX
  8
GSLAYER
 10
4132.2536380723
 20
3676.5571887707
  0
VERTEX
  8
GSLAYER
 10
4132.0896143503
 20
3676.1837010108
  0
VERTEX
  8
GSLAYER
 10
4131.9479307768
 20
3675.8042182627
  0
VERTEX
  8
GSLAYER
 10
4131.8285873518
 20
3675.4187405264
  0
VERTEX
  8
GSLAYER
 10
4131.7339356699
 20
3675.0284667997
  0
VERTEX
  8
GSLAYER
 10
4131.6663273257
 20
3674.6345960801
  0
VERTEX
  8
GSLAYER
 10
4131.6257623192
 20
3674.2371283677
  0
VERTEX
  8
GSLAYER
 10
4131.6122406503
 20
3673.8360636623
  0
VERTEX
  8
GSLAYER
 10
4131.6627999338
 20
3673.0723021756
  0
VERTEX
  8
GSLAYER
 10
4131.8144777843
 20
3672.3157346747
  0
VERTEX
  8
GSLAYER
 10
4132.0672742017
 20
3671.5663611595
  0
VERTEX
  8
GSLAYER
 10
4132.4211891862
 20
3670.82418163
  0
VERTEX
  8
GSLAYER
 10
4132.8715195484
 20
3670.1203700246
  0
VERTEX
  8
GSLAYER
 10
4133.3947493427
 20
3669.5052842433
  0
VERTEX
  8
GSLAYER
 10
4133.990878569
 20
3668.9789242862
  0
VERTEX
  8
GSLAYER
 10
4134.6599072272
 20
3668.5412901533
  0
VERTEX
  8
GSLAYER
 10
4135.0185254008
 20
3668.3590425144
  0
VERTEX
  8
GSLAYER
 10
4135.379495169
 20
3668.1959788375
  0
VERTEX
  8
GSLAYER
 10
4135.7428165318
 20
3668.0520991226
  0
VERTEX
  8
GSLAYER
 10
4136.1084894891
 20
3667.9274033697
  0
VERTEX
  8
GSLAYER
 10
4136.4788656356
 20
3667.8266875692
  0
VERTEX
  8
GSLAYER
 10
4136.8562965659
 20
3667.7547477118
  0
VERTEX
  8
GSLAYER
 10
4137.2407822798
 20
3667.7115837973
  0
VERTEX
  8
GSLAYER
 10
4137.6323227776
 20
3667.6971958258
  0
VERTEX
  8
GSLAYER
 10
4138.0244511739
 20
3667.7115837973
  0
VERTEX
  8
GSLAYER
 10
4138.4107005839
 20
3667.7547477118
  0
VERTEX
  8
GSLAYER
 10
4138.7910710073
 20
3667.8266875692
  0
VERTEX
  8
GSLAYER
 10
4139.1655624444
 20
3667.9274033697
  0
VERTEX
  8
GSLAYER
 10
4139.5353506922
 20
3668.0520991226
  0
VERTEX
  8
GSLAYER
 10
4139.9016115482
 20
3668.1959788375
  0
VERTEX
  8
GSLAYER
 10
4140.2643450123
 20
3668.3590425144
  0
VERTEX
  8
GSLAYER
 10
4140.6235510846
 20
3668.5412901533
  0
VERTEX
  8
GSLAYER
 10
4141.2914039455
 20
3668.9789242862
  0
VERTEX
  8
GSLAYER
 10
4141.8840057799
 20
3669.5052842433
  0
VERTEX
  8
GSLAYER
 10
4142.4013565878
 20
3670.1203700246
  0
VERTEX
  8
GSLAYER
 10
4142.843456369
 20
3670.82418163
  0
VERTEX
  8
GSLAYER
 10
4143.1973713534
 20
3671.5663611595
  0
VERTEX
  8
GSLAYER
 10
4143.4501677709
 20
3672.3157346747
  0
VERTEX
  8
GSLAYER
 10
4143.6018456213
 20
3673.0723021756
  0
VERTEX
  8
GSLAYER
 10
4143.6524049048
 20
3673.8360636623
  0
VERTEX
  8
GSLAYER
 10
4143.6018456213
 20
3674.6262030968
  0
VERTEX
  8
GSLAYER
 10
4143.4501677709
 20
3675.4043525549
  0
VERTEX
  8
GSLAYER
 10
4143.1973713534
 20
3676.1705120369
  0
VERTEX
  8
GSLAYER
 10
4142.843456369
 20
3676.9246815426
  0
VERTEX
  8
GSLAYER
 10
4142.6276975662
 20
3677.2795848394
  0
VERTEX
  8
GSLAYER
 10
4142.394301804
 20
3677.6153041742
  0
VERTEX
  8
GSLAYER
 10
4142.1432690825
 20
3677.931839547
  0
VERTEX
  8
GSLAYER
 10
4141.8745994016
 20
3678.2291909578
  0
VERTEX
  8
GSLAYER
 10
4141.5871169641
 20
3678.5049604114
  0
VERTEX
  8
GSLAYER
 10
4141.2796459726
 20
3678.7567499126
  0
VERTEX
  8
GSLAYER
 10
4140.9521864272
 20
3678.9845594612
  0
VERTEX
  8
GSLAYER
 10
4140.6047383279
 20
3679.1883890573
  0
VERTEX
  8
GSLAYER
 10
4139.8616344403
 20
3679.5325013755
  0
VERTEX
  8
GSLAYER
 10
4139.1185305527
 20
3679.7782958885
  0
VERTEX
  8
GSLAYER
 10
4138.3754266652
 20
3679.9257725963
  0
VERTEX
  8
GSLAYER
 10
4137.6323227776
 20
3679.9749314989
  0
SEQEND
  0
POLYLINE
  8
GSLAYER
 70
128
 66
1
  0
VERTEX
  8
GSLAYER
 10
4137.9145141273
 20
3673.5483042325
  0
VERTEX
  8
GSLAYER
 10
4143.0880222054
 20
3673.5483042325
  0
VERTEX
  8
GSLAYER
 10
4143.0880222054
 20
3673.5099363085
  0
VERTEX
  8
GSLAYER
 10
4143.0233533544
 20
3672.8888555391
  0
VERTEX
  8
GSLAYER
 10
4142.8857850714
 20
3672.2725707602
  0
VERTEX
  8
GSLAYER
 10
4142.6753173564
 20
3671.6610819718
  0
VERTEX
  8
GSLAYER
 10
4142.3919502094
 20
3671.0543891739
  0
VERTEX
  8
GSLAYER
 10
4141.9827727523
 20
3670.4213184283
  0
VERTEX
  8
GSLAYER
 10
4141.507750647
 20
3669.8649835306
  0
VERTEX
  8
GSLAYER
 10
4140.9668838934
 20
3669.3853844808
  0
VERTEX
  8
GSLAYER
 10
4140.3601724915
 20
3668.9825212791
  0
VERTEX
  8
GSLAYER
 10
4139.7722738462
 20
3668.6935628516
  0
VERTEX
  8
GSLAYER
 10
4139.1749688227
 20
3668.4789422769
  0
VERTEX
  8
GSLAYER
 10
4138.5682574208
 20
3668.3386595548
  0
VERTEX
  8
GSLAYER
 10
4137.9521396406
 20
3668.2727146855
  0
VERTEX
  8
GSLAYER
 10
4137.9145141273
 20
3668.2727146855
  0
VERTEX
  8
GSLAYER
 10
4137.9145141273
 20
3673.5483042325
  0
SEQEND
  0
POLYLINE
  8
GSLAYER
 70
128
 66
1
  0
VERTEX
  8
GSLAYER
 10
4137.3501314279
 20
3673.5483042325
  0
VERTEX
  8
GSLAYER
 10
4137.3501314279
 20
3668.2727146855
  0
VERTEX
  8
GSLAYER
 10
4137.3125059146
 20
3668.2727146855
  0
VERTEX
  8
GSLAYER
 10
4136.7034429181
 20
3668.3386595548
  0
VERTEX
  8
GSLAYER
 10
4136.0990831108
 20
3668.4789422769
  0
VERTEX
  8
GSLAYER
 10
4135.4994264926
 20
3668.6935628516
  0
VERTEX
  8
GSLAYER
 10
4134.9044730637
 20
3668.9825212791
  0
VERTEX
  8
GSLAYER
 10
4134.2836520943
 20
3669.3997724523
  0
VERTEX
  8
GSLAYER
 10
4133.7380821515
 20
3669.8841674926
  0
VERTEX
  8
GSLAYER
 10
4133.2677632353
 20
3670.4357063998
  0
VERTEX
  8
GSLAYER
 10
4132.8726953457
 20
3671.0543891739
  0
VERTEX
  8
GSLAYER
 10
4132.5893281987
 20
3671.6538879861
  0
VERTEX
  8
GSLAYER
 10
4132.3788604837
 20
3672.2629787792
  0
VERTEX
  8
GSLAYER
 10
4132.2412922007
 20
3672.8816615534
  0
VERTEX
  8
GSLAYER
 10
4132.1766233497
 20
3673.5099363085
  0
VERTEX
  8
GSLAYER
 10
4132.1766233497
 20
3673.5483042325
  0
VERTEX
  8
GSLAYER
 10
4137.3501314279
 20
3673.5483042325
  0
SEQEND
  0
POLYLINE
  8
GSLAYER
 70
128
 66
1
  0
VERTEX
  8
GSLAYER
 10
4137.9145141273
 20
3674.1238230922
  0
VERTEX
  8
GSLAYER
 10
4137.9145141273
 20
3679.3994126392
  0
VERTEX
  8
GSLAYER
 10
4137.9521396406
 20
3679.3994126392
  0
VERTEX
  8
GSLAYER
 10
4138.5612026371
 20
3679.3334677699
  0
VERTEX
  8
GSLAYER
 10
4139.1655624444
 20
3679.1931850478
  0
VERTEX
  8
GSLAYER
 10
4139.7652190625
 20
3678.9785644731
  0
VERTEX
  8
GSLAYER
 10
4140.3601724915
 20
3678.6896060456
  0
VERTEX
  8
GSLAYER
 10
4140.9809934609
 20
3678.2723548723
  0
VERTEX
  8
GSLAYER
 10
4141.5265634036
 20
3677.7879598321
  0
VERTEX
  8
GSLAYER
 10
4141.9968823198
 20
3677.2364209249
  0
VERTEX
  8
GSLAYER
 10
4142.3919502094
 20
3676.6177381508
  0
VERTEX
  8
GSLAYER
 10
4142.6753173564
 20
3676.0182393386
  0
VERTEX
  8
GSLAYER
 10
4142.8857850714
 20
3675.4091485454
  0
VERTEX
  8
GSLAYER
 10
4143.0233533544
 20
3674.7904657713
  0
VERTEX
  8
GSLAYER
 10
4143.0880222054
 20
3674.1621910161
  0
VERTEX
  8
GSLAYER
 10
4143.0880222054
 20
3674.1238230922
  0
VERTEX
  8
GSLAYER
 10
4137.9145141273
 20
3674.1238230922
  0
SEQEND
  0
POLYLINE
  8
GSLAYER
 70
128
 66
1
  0
VERTEX
  8
GSLAYER
 10
4137.3501314279
 20
3674.1238230922
  0
VERTEX
  8
GSLAYER
 10
4132.1766233497
 20
3674.1238230922
  0
VERTEX
  8
GSLAYER
 10
4132.1766233497
 20
3674.1621910161
  0
VERTEX
  8
GSLAYER
 10
4132.2412922007
 20
3674.7832717855
  0
VERTEX
  8
GSLAYER
 10
4132.3788604837
 20
3675.3995565644
  0
VERTEX
  8
GSLAYER
 10
4132.5893281987
 20
3676.0110453529
  0
VERTEX
  8
GSLAYER
 10
4132.8726953457
 20
3676.6177381508
  0
VERTEX
  8
GSLAYER
 10
4133.2818728028
 20
3677.2508088964
  0
VERTEX
  8
GSLAYER
 10
4133.7568949082
 20
3677.8071437941
  0
VERTEX
  8
GSLAYER
 10
4134.2977616618
 20
3678.2867428438
  0
VERTEX
  8
GSLAYER
 10
4134.9044730637
 20
3678.6896060456
  0
VERTEX
  8
GSLAYER
 10
4135.4923717089
 20
3678.9785644731
  0
VERTEX
  8
GSLAYER
 10
4136.0896767325
 20
3679.1931850478
  0
VERTEX
  8
GSLAYER
 10
4136.6963881344
 20
3679.3334677699
  0
VERTEX
  8
GSLAYER
 10
4137.3125059146
 20
3679.3994126392
  0
VERTEX
  8
GSLAYER
 10
4137.3501314279
 20
3679.3994126392
  0
VERTEX
  8
GSLAYER
 10
4137.3501314279
 20
3674.1238230922
  0
SEQEND
  0
POLYLINE
  8
GSLAYER
 70
128
 66
1
  0
VERTEX
  8
GSLAYER
 10
4136.3614165507
 20
3693.1393925261
  0
VERTEX
  8
GSLAYER
 10
4135.6124336767
 20
3693.0902336235
  0
VERTEX
  8
GSLAYER
 10
4134.8705055864
 20
3692.9427569157
  0
VERTEX
  8
GSLAYER
 10
4134.1356322798
 20
3692.6969624027
  0
VERTEX
  8
GSLAYER
 10
4133.407813757
 20
3692.3528500845
  0
VERTEX
  8
GSLAYER
 10
4132.7246755313
 20
3691.9092209635
  0
VERTEX
  8
GSLAYER
 10
4132.1238431158
 20
3691.3840600041
  0
VERTEX
  8
GSLAYER
 10
4131.6053165107
 20
3690.7773672062
  0
VERTEX
  8
GSLAYER
 10
4131.169095716
 20
3690.0891425698
  0
VERTEX
  8
GSLAYER
 10
4130.9827318454
 20
3689.721649798
  0
VERTEX
  8
GSLAYER
 10
4130.8187081234
 20
3689.348162038
  0
VERTEX
  8
GSLAYER
 10
4130.6770245499
 20
3688.9686792899
  0
VERTEX
  8
GSLAYER
 10
4130.5576811249
 20
3688.5832015537
  0
VERTEX
  8
GSLAYER
 10
4130.463029443
 20
3688.1929278269
  0
VERTEX
  8
GSLAYER
 10
4130.3954210988
 20
3687.7990571074
  0
VERTEX
  8
GSLAYER
 10
4130.3548560923
 20
3687.4015893949
  0
VERTEX
  8
GSLAYER
 10
4130.3413344235
 20
3687.0005246896
  0
VERTEX
  8
GSLAYER
 10
4130.3918937069
 20
3686.2367632029
  0
VERTEX
  8
GSLAYER
 10
4130.5435715574
 20
3685.4801957019
  0
VERTEX
  8
GSLAYER
 10
4130.7963679749
 20
3684.7308221867
  0
VERTEX
  8
GSLAYER
 10
4131.1502829593
 20
3683.9886426573
  0
VERTEX
  8
GSLAYER
 10
4131.6006133216
 20
3683.2848310518
  0
VERTEX
  8
GSLAYER
 10
4132.1238431158
 20
3682.6697452705
  0
VERTEX
  8
GSLAYER
 10
4132.7199723421
 20
3682.1433853134
  0
VERTEX
  8
GSLAYER
 10
4133.3890010004
 20
3681.7057511806
  0
VERTEX
  8
GSLAYER
 10
4133.747619174
 20
3681.5235035417
  0
VERTEX
  8
GSLAYER
 10
4134.1085889422
 20
3681.3604398647
  0
VERTEX
  8
GSLAYER
 10
4134.4719103049
 20
3681.2165601498
  0
VERTEX
  8
GSLAYER
 10
4134.8375832622
 20
3681.0918643969
  0
VERTEX
  8
GSLAYER
 10
4135.2079594087
 20
3680.9911485965
  0
VERTEX
  8
GSLAYER
 10
4135.585390339
 20
3680.919208739
  0
VERTEX
  8
GSLAYER
 10
4135.969876053
 20
3680.8760448245
  0
VERTEX
  8
GSLAYER
 10
4136.3614165507
 20
3680.861656853
  0
VERTEX
  8
GSLAYER
 10
4136.7535449471
 20
3680.8760448245
  0
VERTEX
  8
GSLAYER
 10
4137.139794357
 20
3680.919208739
  0
VERTEX
  8
GSLAYER
 10
4137.5201647805
 20
3680.9911485965
  0
VERTEX
  8
GSLAYER
 10
4137.8946562175
 20
3681.0918643969
  0
VERTEX
  8
GSLAYER
 10
4138.2644444654
 20
3681.2165601498
  0
VERTEX
  8
GSLAYER
 10
4138.6307053213
 20
3681.3604398647
  0
VERTEX
  8
GSLAYER
 10
4138.9934387854
 20
3681.5235035417
  0
VERTEX
  8
GSLAYER
 10
4139.3526448577
 20
3681.7057511806
  0
VERTEX
  8
GSLAYER
 10
4140.0204977187
 20
3682.1433853134
  0
VERTEX
  8
GSLAYER
 10
4140.6130995531
 20
3682.6697452705
  0
VERTEX
  8
GSLAYER
 10
4141.1304503609
 20
3683.2848310518
  0
VERTEX
  8
GSLAYER
 10
4141.5725501421
 20
3683.9886426573
  0
VERTEX
  8
GSLAYER
 10
4141.9264651265
 20
3684.7308221867
  0
VERTEX
  8
GSLAYER
 10
4142.179261544
 20
3685.4801957019
  0
VERTEX
  8
GSLAYER
 10
4142.3309393945
 20
3686.2367632029
  0
VERTEX
  8
GSLAYER
 10
4142.381498678
 20
3687.0005246896
  0
VERTEX
  8
GSLAYER
 10
4142.3309393945
 20
3687.790664124
  0
VERTEX
  8
GSLAYER
 10
4142.179261544
 20
3688.5688135822
  0
VERTEX
  8
GSLAYER
 10
4141.9264651265
 20
3689.3349730641
  0
VERTEX
  8
GSLAYER
 10
4141.5725501421
 20
3690.0891425698
  0
VERTEX
  8
GSLAYER
 10
4141.3567913393
 20
3690.4440458666
  0
VERTEX
  8
GSLAYER
 10
4141.1233955772
 20
3690.7797652014
  0
VERTEX
  8
GSLAYER
 10
4140.8723628556
 20
3691.0963005742
  0
VERTEX
  8
GSLAYER
 10
4140.6036931748
 20
3691.3936519851
  0
VERTEX
  8
GSLAYER
 10
4140.3162107372
 20
3691.6694214387
  0
VERTEX
  8
GSLAYER
 10
4140.0087397458
 20
3691.9212109398
  0
VERTEX
  8
GSLAYER
 10
4139.6812802004
 20
3692.1490204884
  0
VERTEX
  8
GSLAYER
 10
4139.333832101
 20
3692.3528500845
  0
VERTEX
  8
GSLAYER
 10
4138.5907282135
 20
3692.6969624027
  0
VERTEX
  8
GSLAYER
 10
4137.8476243259
 20
3692.9427569157
  0
VERTEX
  8
GSLAYER
 10
4137.1045204383
 20
3693.0902336235
  0
VERTEX
  8
GSLAYER
 10
4136.3614165507
 20
3693.1393925261
  0
SEQEND
  0
POLYLINE
  8
GSLAYER
 70
128
 66
1
  0
VERTEX
  8
GSLAYER
 10
4136.6436079004
 20
3686.7127652597
  0
VERTEX
  8
GSLAYER
 10
4141.8171159785
 20
3686.7127652597
  0
VERTEX
  8
GSLAYER
 10
4141.8171159785
 20
3686.6743973357
  0
VERTEX
  8
GSLAYER
 10
4141.7524471276
 20
3686.0533165663
  0
VERTEX
  8
GSLAYER
 10
4141.6148788446
 20
3685.4370317874
  0
VERTEX
  8
GSLAYER
 10
4141.4044111296
 20
3684.825542999
  0
VERTEX
  8
GSLAYER
 10
4141.1210439826
 20
3684.2188502011
  0
VERTEX
  8
GSLAYER
 10
4140.7118665255
 20
3683.5857794555
  0
VERTEX
  8
GSLAYER
 10
4140.2368444201
 20
3683.0294445578
  0
VERTEX
  8
GSLAYER
 10
4139.6959776665
 20
3682.5498455081
  0
VERTEX
  8
GSLAYER
 10
4139.0892662646
 20
3682.1469823063
  0
VERTEX
  8
GSLAYER
 10
4138.5013676194
 20
3681.8580238788
  0
VERTEX
  8
GSLAYER
 10
4137.9040625958
 20
3681.6434033041
  0
VERTEX
  8
GSLAYER
 10
4137.2973511939
 20
3681.503120582
  0
VERTEX
  8
GSLAYER
 10
4136.6812334137
 20
3681.4371757127
  0
VERTEX
  8
GSLAYER
 10
4136.6436079004
 20
3681.4371757127
  0
VERTEX
  8
GSLAYER
 10
4136.6436079004
 20
3686.7127652597
  0
SEQEND
  0
POLYLINE
  8
GSLAYER
 70
128
 66
1
  0
VERTEX
  8
GSLAYER
 10
4136.079225201
 20
3686.7127652597
  0
VERTEX
  8
GSLAYER
 10
4136.079225201
 20
3681.4371757127
  0
VERTEX
  8
GSLAYER
 10
4136.0415996877
 20
3681.4371757127
  0
VERTEX
  8
GSLAYER
 10
4135.4325366912
 20
3681.503120582
  0
VERTEX
  8
GSLAYER
 10
4134.8281768839
 20
3681.6434033041
  0
VERTEX
  8
GSLAYER
 10
4134.2285202658
 20
3681.8580238788
  0
VERTEX
  8
GSLAYER
 10
4133.6335668368
 20
3682.1469823063
  0
VERTEX
  8
GSLAYER
 10
4133.0127458674
 20
3682.5642334796
  0
VERTEX
  8
GSLAYER
 10
4132.4671759246
 20
3683.0486285198
  0
VERTEX
  8
GSLAYER
 10
4131.9968570084
 20
3683.600167427
  0
VERTEX
  8
GSLAYER
 10
4131.6017891188
 20
3684.2188502011
  0
VERTEX
  8
GSLAYER
 10
4131.3184219718
 20
3684.8183490133
  0
VERTEX
  8
GSLAYER
 10
4131.1079542568
 20
3685.4274398064
  0
VERTEX
  8
GSLAYER
 10
4130.9703859739
 20
3686.0461225806
  0
VERTEX
  8
GSLAYER
 10
4130.9057171229
 20
3686.6743973357
  0
VERTEX
  8
GSLAYER
 10
4130.9057171229
 20
3686.7127652597
  0
VERTEX
  8
GSLAYER
 10
4136.079225201
 20
3686.7127652597
  0
SEQEND
  0
POLYLINE
  8
GSLAYER
 70
128
 66
1
  0
VERTEX
  8
GSLAYER
 10
4136.6436079004
 20
3687.2882841194
  0
VERTEX
  8
GSLAYER
 10
4136.6436079004
 20
3692.5638736664
  0
VERTEX
  8
GSLAYER
 10
4136.6812334137
 20
3692.5638736664
  0
VERTEX
  8
GSLAYER
 10
4137.2902964102
 20
3692.4979287971
  0
VERTEX
  8
GSLAYER
 10
4137.8946562175
 20
3692.357646075
  0
VERTEX
  8
GSLAYER
 10
4138.4943128356
 20
3692.1430255003
  0
VERTEX
  8
GSLAYER
 10
4139.0892662646
 20
3691.8540670728
  0
VERTEX
  8
GSLAYER
 10
4139.710087234
 20
3691.4368158996
  0
VERTEX
  8
GSLAYER
 10
4140.2556571768
 20
3690.9524208593
  0
VERTEX
  8
GSLAYER
 10
4140.725976093
 20
3690.4008819521
  0
VERTEX
  8
GSLAYER
 10
4141.1210439826
 20
3689.782199178
  0
VERTEX
  8
GSLAYER
 10
4141.4044111296
 20
3689.1827003658
  0
VERTEX
  8
GSLAYER
 10
4141.6148788446
 20
3688.5736095727
  0
VERTEX
  8
GSLAYER
 10
4141.7524471276
 20
3687.9549267985
  0
VERTEX
  8
GSLAYER
 10
4141.8171159785
 20
3687.3266520434
  0
VERTEX
  8
GSLAYER
 10
4141.8171159785
 20
3687.2882841194
  0
VERTEX
  8
GSLAYER
 10
4136.6436079004
 20
3687.2882841194
  0
SEQEND
  0
POLYLINE
  8
GSLAYER
 70
128
 66
1
  0
VERTEX
  8
GSLAYER
 10
4136.079225201
 20
3687.2882841194
  0
VERTEX
  8
GSLAYER
 10
4130.9057171229
 20
3687.2882841194
  0
VERTEX
  8
GSLAYER
 10
4130.9057171229
 20
3687.3266520434
  0
VERTEX
  8
GSLAYER
 10
4130.9703859739
 20
3687.9477328128
  0
VERTEX
  8
GSLAYER
 10
4131.1079542568
 20
3688.5640175917
  0
VERTEX
  8
GSLAYER
 10
4131.3184219718
 20
3689.1755063801
  0
VERTEX
  8
GSLAYER
 10
4131.6017891188
 20
3689.782199178
  0
VERTEX
  8
GSLAYER
 10
4132.0109665759
 20
3690.4152699236
  0
VERTEX
  8
GSLAYER
 10
4132.4859886813
 20
3690.9716048213
  0
VERTEX
  8
GSLAYER
 10
4133.0268554349
 20
3691.451203871
  0
VERTEX
  8
GSLAYER
 10
4133.6335668368
 20
3691.8540670728
  0
VERTEX
  8
GSLAYER
 10
4134.221465482
 20
3692.1430255003
  0
VERTEX
  8
GSLAYER
 10
4134.8187705056
 20
3692.357646075
  0
VERTEX
  8
GSLAYER
 10
4135.4254819075
 20
3692.4979287971
  0
VERTEX
  8
GSLAYER
 10
4136.0415996877
 20
3692.5638736664
  0
VERTEX
  8
GSLAYER
 10
4136.079225201
 20
3692.5638736664
  0
VERTEX
  8
GSLAYER
 10
4136.079225201
 20
3687.2882841194
  0
SEQEND
  0
POLYLINE
  8
GSLAYER
 70
128
 66
1
  0
VERTEX
  8
GSLAYER
 10
4153.7527649183
 20
3799.0689675275
  0
VERTEX
  8
GSLAYER
 10
4153.0037820443
 20
3799.0198086249
  0
VERTEX
  8
GSLAYER
 10
4152.261853954
 20
3798.8723319172
  0
VERTEX
  8
GSLAYER
 10
4151.5269806475
 20
3798.6265374042
  0
VERTEX
  8
GSLAYER
 10
4150.7991621247
 20
3798.282425086
  0
VERTEX
  8
GSLAYER
 10
4150.1160238989
 20
3797.838795965
  0
VERTEX
  8
GSLAYER
 10
4149.5151914834
 20
3797.3136350055
  0
VERTEX
  8
GSLAYER
 10
4148.9966648783
 20
3796.7069422076
  0
VERTEX
  8
GSLAYER
 10
4148.5604440836
 20
3796.0187175713
  0
VERTEX
  8
GSLAYER
 10
4148.374080213
 20
3795.6512247994
  0
VERTEX
  8
GSLAYER
 10
4148.210056491
 20
3795.2777370394
  0
VERTEX
  8
GSLAYER
 10
4148.0683729175
 20
3794.8982542913
  0
VERTEX
  8
GSLAYER
 10
4147.9490294925
 20
3794.5127765551
  0
VERTEX
  8
GSLAYER
 10
4147.8543778106
 20
3794.1225028284
  0
VERTEX
  8
GSLAYER
 10
4147.7867694664
 20
3793.7286321088
  0
VERTEX
  8
GSLAYER
 10
4147.7462044599
 20
3793.3311643963
  0
VERTEX
  8
GSLAYER
 10
4147.7326827911
 20
3792.930099691
  0
VERTEX
  8
GSLAYER
 10
4147.7832420746
 20
3792.1663382043
  0
VERTEX
  8
GSLAYER
 10
4147.934919925
 20
3791.4097707034
  0
VERTEX
  8
GSLAYER
 10
4148.1877163425
 20
3790.6603971882
  0
VERTEX
  8
GSLAYER
 10
4148.5416313269
 20
3789.9182176587
  0
VERTEX
  8
GSLAYER
 10
4148.9919616892
 20
3789.2144060532
  0
VERTEX
  8
GSLAYER
 10
4149.5151914834
 20
3788.599320272
  0
VERTEX
  8
GSLAYER
 10
4150.1113207097
 20
3788.0729603149
  0
VERTEX
  8
GSLAYER
 10
4150.780349368
 20
3787.635326182
  0
VERTEX
  8
GSLAYER
 10
4151.1389675416
 20
3787.4530785431
  0
VERTEX
  8
GSLAYER
 10
4151.4999373098
 20
3787.2900148662
  0
VERTEX
  8
GSLAYER
 10
4151.8632586725
 20
3787.1461351513
  0
VERTEX
  8
GSLAYER
 10
4152.2289316299
 20
3787.0214393984
  0
VERTEX
  8
GSLAYER
 10
4152.5993077764
 20
3786.9207235979
  0
VERTEX
  8
GSLAYER
 10
4152.9767387066
 20
3786.8487837405
  0
VERTEX
  8
GSLAYER
 10
4153.3612244206
 20
3786.805619826
  0
VERTEX
  8
GSLAYER
 10
4153.7527649183
 20
3786.7912318545
  0
VERTEX
  8
GSLAYER
 10
4154.1448933147
 20
3786.805619826
  0
VERTEX
  8
GSLAYER
 10
4154.5311427246
 20
3786.8487837405
  0
VERTEX
  8
GSLAYER
 10
4154.9115131481
 20
3786.9207235979
  0
VERTEX
  8
GSLAYER
 10
4155.2860045851
 20
3787.0214393984
  0
VERTEX
  8
GSLAYER
 10
4155.655792833
 20
3787.1461351513
  0
VERTEX
  8
GSLAYER
 10
4156.022053689
 20
3787.2900148662
  0
VERTEX
  8
GSLAYER
 10
4156.3847871531
 20
3787.4530785431
  0
VERTEX
  8
GSLAYER
 10
4156.7439932253
 20
3787.635326182
  0
VERTEX
  8
GSLAYER
 10
4157.4118460863
 20
3788.0729603149
  0
VERTEX
  8
GSLAYER
 10
4158.0044479207
 20
3788.599320272
  0
VERTEX
  8
GSLAYER
 10
4158.5217987285
 20
3789.2144060532
  0
VERTEX
  8
GSLAYER
 10
4158.9638985097
 20
3789.9182176587
  0
VERTEX
  8
GSLAYER
 10
4159.3178134942
 20
3790.6603971882
  0
VERTEX
  8
GSLAYER
 10
4159.5706099116
 20
3791.4097707034
  0
VERTEX
  8
GSLAYER
 10
4159.7222877621
 20
3792.1663382043
  0
VERTEX
  8
GSLAYER
 10
4159.7728470456
 20
3792.930099691
  0
VERTEX
  8
GSLAYER
 10
4159.7222877621
 20
3793.7202391254
  0
VERTEX
  8
GSLAYER
 10
4159.5706099116
 20
3794.4983885836
  0
VERTEX
  8
GSLAYER
 10
4159.3178134942
 20
3795.2645480656
  0
VERTEX
  8
GSLAYER
 10
4158.9638985097
 20
3796.0187175713
  0
VERTEX
  8
GSLAYER
 10
4158.7481397069
 20
3796.3736208681
  0
VERTEX
  8
GSLAYER
 10
4158.5147439448
 20
3796.7093402029
  0
VERTEX
  8
GSLAYER
 10
4158.2637112233
 20
3797.0258755757
  0
VERTEX
  8
GSLAYER
 10
4157.9950415424
 20
3797.3232269865
  0
VERTEX
  8
GSLAYER
 10
4157.7075591049
 20
3797.5989964401
  0
VERTEX
  8
GSLAYER
 10
4157.4000881134
 20
3797.8507859412
  0
VERTEX
  8
GSLAYER
 10
4157.072628568
 20
3798.0785954899
  0
VERTEX
  8
GSLAYER
 10
4156.7251804687
 20
3798.282425086
  0
VERTEX
  8
GSLAYER
 10
4155.9820765811
 20
3798.6265374042
  0
VERTEX
  8
GSLAYER
 10
4155.2389726935
 20
3798.8723319172
  0
VERTEX
  8
GSLAYER
 10
4154.4958688059
 20
3799.0198086249
  0
VERTEX
  8
GSLAYER
 10
4153.7527649183
 20
3799.0689675275
  0
SEQEND
  0
POLYLINE
  8
GSLAYER
 70
128
 66
1
  0
VERTEX
  8
GSLAYER
 10
4154.0349562681
 20
3792.6423402612
  0
VERTEX
  8
GSLAYER
 10
4159.2084643462
 20
3792.6423402612
  0
VERTEX
  8
GSLAYER
 10
4159.2084643462
 20
3792.6039723372
  0
VERTEX
  8
GSLAYER
 10
4159.1437954952
 20
3791.9828915678
  0
VERTEX
  8
GSLAYER
 10
4159.0062272122
 20
3791.3666067889
  0
VERTEX
  8
GSLAYER
 10
4158.7957594972
 20
3790.7551180005
  0
VERTEX
  8
GSLAYER
 10
4158.5123923502
 20
3790.1484252026
  0
VERTEX
  8
GSLAYER
 10
4158.1032148931
 20
3789.5153544569
  0
VERTEX
  8
GSLAYER
 10
4157.6281927878
 20
3788.9590195593
  0
VERTEX
  8
GSLAYER
 10
4157.0873260341
 20
3788.4794205095
  0
VERTEX
  8
GSLAYER
 10
4156.4806146322
 20
3788.0765573078
  0
VERTEX
  8
GSLAYER
 10
4155.892715987
 20
3787.7875988803
  0
VERTEX
  8
GSLAYER
 10
4155.2954109634
 20
3787.5729783055
  0
VERTEX
  8
GSLAYER
 10
4154.6886995616
 20
3787.4326955835
  0
VERTEX
  8
GSLAYER
 10
4154.0725817813
 20
3787.3667507142
  0
VERTEX
  8
GSLAYER
 10
4154.0349562681
 20
3787.3667507142
  0
VERTEX
  8
GSLAYER
 10
4154.0349562681
 20
3792.6423402612
  0
SEQEND
  0
POLYLINE
  8
GSLAYER
 70
128
 66
1
  0
VERTEX
  8
GSLAYER
 10
4153.4705735686
 20
3792.6423402612
  0
VERTEX
  8
GSLAYER
 10
4153.4705735686
 20
3787.3667507142
  0
VERTEX
  8
GSLAYER
 10
4153.4329480553
 20
3787.3667507142
  0
VERTEX
  8
GSLAYER
 10
4152.8238850589
 20
3787.4326955835
  0
VERTEX
  8
GSLAYER
 10
4152.2195252516
 20
3787.5729783055
  0
VERTEX
  8
GSLAYER
 10
4151.6198686334
 20
3787.7875988803
  0
VERTEX
  8
GSLAYER
 10
4151.0249152044
 20
3788.0765573078
  0
VERTEX
  8
GSLAYER
 10
4150.4040942351
 20
3788.493808481
  0
VERTEX
  8
GSLAYER
 10
4149.8585242923
 20
3788.9782035212
  0
VERTEX
  8
GSLAYER
 10
4149.3882053761
 20
3789.5297424284
  0
VERTEX
  8
GSLAYER
 10
4148.9931374865
 20
3790.1484252026
  0
VERTEX
  8
GSLAYER
 10
4148.7097703395
 20
3790.7479240147
  0
VERTEX
  8
GSLAYER
 10
4148.4993026245
 20
3791.3570148079
  0
VERTEX
  8
GSLAYER
 10
4148.3617343415
 20
3791.9756975821
  0
VERTEX
  8
GSLAYER
 10
4148.2970654905
 20
3792.6039723372
  0
VERTEX
  8
GSLAYER
 10
4148.2970654905
 20
3792.6423402612
  0
VERTEX
  8
GSLAYER
 10
4153.4705735686
 20
3792.6423402612
  0
SEQEND
  0
POLYLINE
  8
GSLAYER
 70
128
 66
1
  0
VERTEX
  8
GSLAYER
 10
4154.0349562681
 20
3793.2178591208
  0
VERTEX
  8
GSLAYER
 10
4154.0349562681
 20
3798.4934486679
  0
VERTEX
  8
GSLAYER
 10
4154.0725817813
 20
3798.4934486679
  0
VERTEX
  8
GSLAYER
 10
4154.6816447778
 20
3798.4275037985
  0
VERTEX
  8
GSLAYER
 10
4155.2860045851
 20
3798.2872210765
  0
VERTEX
  8
GSLAYER
 10
4155.8856612033
 20
3798.0726005017
  0
VERTEX
  8
GSLAYER
 10
4156.4806146322
 20
3797.7836420743
  0
VERTEX
  8
GSLAYER
 10
4157.1014356016
 20
3797.366390901
  0
VERTEX
  8
GSLAYER
 10
4157.6470055444
 20
3796.8819958608
  0
VERTEX
  8
GSLAYER
 10
4158.1173244606
 20
3796.3304569536
  0
VERTEX
  8
GSLAYER
 10
4158.5123923502
 20
3795.7117741794
  0
VERTEX
  8
GSLAYER
 10
4158.7957594972
 20
3795.1122753673
  0
VERTEX
  8
GSLAYER
 10
4159.0062272122
 20
3794.5031845741
  0
VERTEX
  8
GSLAYER
 10
4159.1437954952
 20
3793.8845018
  0
VERTEX
  8
GSLAYER
 10
4159.2084643462
 20
3793.2562270448
  0
VERTEX
  8
GSLAYER
 10
4159.2084643462
 20
3793.2178591208
  0
VERTEX
  8
GSLAYER
 10
4154.0349562681
 20
3793.2178591208
  0
SEQEND
  0
POLYLINE
  8
GSLAYER
 70
128
 66
1
  0
VERTEX
  8
GSLAYER
 10
4153.4705735686
 20
3793.2178591208
  0
VERTEX
  8
GSLAYER
 10
4148.2970654905
 20
3793.2178591208
  0
VERTEX
  8
GSLAYER
 10
4148.2970654905
 20
3793.2562270448
  0
VERTEX
  8
GSLAYER
 10
4148.3617343415
 20
3793.8773078142
  0
VERTEX
  8
GSLAYER
 10
4148.4993026245
 20
3794.4935925931
  0
VERTEX
  8
GSLAYER
 10
4148.7097703395
 20
3795.1050813815
  0
VERTEX
  8
GSLAYER
 10
4148.9931374865
 20
3795.7117741794
  0
VERTEX
  8
GSLAYER
 10
4149.4023149436
 20
3796.3448449251
  0
VERTEX
  8
GSLAYER
 10
4149.8773370489
 20
3796.9011798228
  0
VERTEX
  8
GSLAYER
 10
4150.4182038025
 20
3797.3807788725
  0
VERTEX
  8
GSLAYER
 10
4151.0249152044
 20
3797.7836420743
  0
VERTEX
  8
GSLAYER
 10
4151.6128138497
 20
3798.0726005017
  0
VERTEX
  8
GSLAYER
 10
4152.2101188732
 20
3798.2872210765
  0
VERTEX
  8
GSLAYER
 10
4152.8168302751
 20
3798.4275037985
  0
VERTEX
  8
GSLAYER
 10
4153.4329480553
 20
3798.4934486679
  0
VERTEX
  8
GSLAYER
 10
4153.4705735686
 20
3798.4934486679
  0
VERTEX
  8
GSLAYER
 10
4153.4705735686
 20
3793.2178591208
  0
SEQEND
  0
POLYLINE
  8
GSLAYER
 70
128
 66
1
  0
VERTEX
  8
GSLAYER
 10
4153.5520955141
 20
3808.6865271381
  0
VERTEX
  8
GSLAYER
 10
4152.8031126401
 20
3808.6373682355
  0
VERTEX
  8
GSLAYER
 10
4152.0611845498
 20
3808.4898915277
  0
VERTEX
  8
GSLAYER
 10
4151.3263112432
 20
3808.2440970147
  0
VERTEX
  8
GSLAYER
 10
4150.5984927204
 20
3807.8999846965
  0
VERTEX
  8
GSLAYER
 10
4149.9153544946
 20
3807.4563555756
  0
VERTEX
  8
GSLAYER
 10
4149.3145220792
 20
3806.9311946161
  0
VERTEX
  8
GSLAYER
 10
4148.7959954741
 20
3806.3245018182
  0
VERTEX
  8
GSLAYER
 10
4148.3597746793
 20
3805.6362771818
  0
VERTEX
  8
GSLAYER
 10
4148.1734108088
 20
3805.26878441
  0
VERTEX
  8
GSLAYER
 10
4148.0093870868
 20
3804.89529665
  0
VERTEX
  8
GSLAYER
 10
4147.8677035133
 20
3804.5158139019
  0
VERTEX
  8
GSLAYER
 10
4147.7483600883
 20
3804.1303361657
  0
VERTEX
  8
GSLAYER
 10
4147.6537084064
 20
3803.740062439
  0
VERTEX
  8
GSLAYER
 10
4147.5861000622
 20
3803.3461917194
  0
VERTEX
  8
GSLAYER
 10
4147.5455350557
 20
3802.9487240069
  0
VERTEX
  8
GSLAYER
 10
4147.5320133868
 20
3802.5476593016
  0
VERTEX
  8
GSLAYER
 10
4147.5825726703
 20
3801.7838978149
  0
VERTEX
  8
GSLAYER
 10
4147.7342505208
 20
3801.0273303139
  0
VERTEX
  8
GSLAYER
 10
4147.9870469383
 20
3800.2779567987
  0
VERTEX
  8
GSLAYER
 10
4148.3409619227
 20
3799.5357772693
  0
VERTEX
  8
GSLAYER
 10
4148.7912922849
 20
3798.8319656638
  0
VERTEX
  8
GSLAYER
 10
4149.3145220792
 20
3798.2168798825
  0
VERTEX
  8
GSLAYER
 10
4149.9106513055
 20
3797.6905199254
  0
VERTEX
  8
GSLAYER
 10
4150.5796799638
 20
3797.2528857926
  0
VERTEX
  8
GSLAYER
 10
4150.9382981374
 20
3797.0706381537
  0
VERTEX
  8
GSLAYER
 10
4151.2992679055
 20
3796.9075744768
  0
VERTEX
  8
GSLAYER
 10
4151.6625892683
 20
3796.7636947618
  0
VERTEX
  8
GSLAYER
 10
4152.0282622256
 20
3796.6389990089
  0
VERTEX
  8
GSLAYER
 10
4152.3986383721
 20
3796.5382832085
  0
VERTEX
  8
GSLAYER
 10
4152.7760693024
 20
3796.466343351
  0
VERTEX
  8
GSLAYER
 10
4153.1605550164
 20
3796.4231794365
  0
VERTEX
  8
GSLAYER
 10
4153.5520955141
 20
3796.408791465
  0
VERTEX
  8
GSLAYER
 10
4153.9442239105
 20
3796.4231794365
  0
VERTEX
  8
GSLAYER
 10
4154.3304733204
 20
3796.466343351
  0
VERTEX
  8
GSLAYER
 10
4154.7108437439
 20
3796.5382832085
  0
VERTEX
  8
GSLAYER
 10
4155.0853351809
 20
3796.6389990089
  0
VERTEX
  8
GSLAYER
 10
4155.4551234287
 20
3796.7636947618
  0
VERTEX
  8
GSLAYER
 10
4155.8213842847
 20
3796.9075744768
  0
VERTEX
  8
GSLAYER
 10
4156.1841177488
 20
3797.0706381537
  0
VERTEX
  8
GSLAYER
 10
4156.5433238211
 20
3797.2528857926
  0
VERTEX
  8
GSLAYER
 10
4157.2111766821
 20
3797.6905199254
  0
VERTEX
  8
GSLAYER
 10
4157.8037785165
 20
3798.2168798825
  0
VERTEX
  8
GSLAYER
 10
4158.3211293243
 20
3798.8319656638
  0
VERTEX
  8
GSLAYER
 10
4158.7632291055
 20
3799.5357772693
  0
VERTEX
  8
GSLAYER
 10
4159.1171440899
 20
3800.2779567987
  0
VERTEX
  8
GSLAYER
 10
4159.3699405074
 20
3801.0273303139
  0
VERTEX
  8
GSLAYER
 10
4159.5216183579
 20
3801.7838978149
  0
VERTEX
  8
GSLAYER
 10
4159.5721776414
 20
3802.5476593016
  0
VERTEX
  8
GSLAYER
 10
4159.5216183579
 20
3803.337798736
  0
VERTEX
  8
GSLAYER
 10
4159.3699405074
 20
3804.1159481942
  0
VERTEX
  8
GSLAYER
 10
4159.1171440899
 20
3804.8821076761
  0
VERTEX
  8
GSLAYER
 10
4158.7632291055
 20
3805.6362771818
  0
VERTEX
  8
GSLAYER
 10
4158.5474703027
 20
3805.9911804786
  0
VERTEX
  8
GSLAYER
 10
4158.3140745405
 20
3806.3268998134
  0
VERTEX
  8
GSLAYER
 10
4158.063041819
 20
3806.6434351863
  0
VERTEX
  8
GSLAYER
 10
4157.7943721381
 20
3806.9407865971
  0
VERTEX
  8
GSLAYER
 10
4157.5068897006
 20
3807.2165560507
  0
VERTEX
  8
GSLAYER
 10
4157.1994187092
 20
3807.4683455518
  0
VERTEX
  8
GSLAYER
 10
4156.8719591638
 20
3807.6961551004
  0
VERTEX
  8
GSLAYER
 10
4156.5245110644
 20
3807.8999846965
  0
VERTEX
  8
GSLAYER
 10
4155.7814071768
 20
3808.2440970147
  0
VERTEX
  8
GSLAYER
 10
4155.0383032893
 20
3808.4898915277
  0
VERTEX
  8
GSLAYER
 10
4154.2951994017
 20
3808.6373682355
  0
VERTEX
  8
GSLAYER
 10
4153.5520955141
 20
3808.6865271381
  0
SEQEND
  0
POLYLINE
  8
GSLAYER
 70
128
 66
1
  0
VERTEX
  8
GSLAYER
 10
4153.8342868638
 20
3802.2598998717
  0
VERTEX
  8
GSLAYER
 10
4159.0077949419
 20
3802.2598998717
  0
VERTEX
  8
GSLAYER
 10
4159.0077949419
 20
3802.2215319478
  0
VERTEX
  8
GSLAYER
 10
4158.9431260909
 20
3801.6004511784
  0
VERTEX
  8
GSLAYER
 10
4158.805557808
 20
3800.9841663995
  0
VERTEX
  8
GSLAYER
 10
4158.595090093
 20
3800.3726776111
  0
VERTEX
  8
GSLAYER
 10
4158.311722946
 20
3799.7659848131
  0
VERTEX
  8
GSLAYER
 10
4157.9025454889
 20
3799.1329140675
  0
VERTEX
  8
GSLAYER
 10
4157.4275233835
 20
3798.5765791698
  0
VERTEX
  8
GSLAYER
 10
4156.8866566299
 20
3798.0969801201
  0
VERTEX
  8
GSLAYER
 10
4156.279945228
 20
3797.6941169183
  0
VERTEX
  8
GSLAYER
 10
4155.6920465828
 20
3797.4051584909
  0
VERTEX
  8
GSLAYER
 10
4155.0947415592
 20
3797.1905379161
  0
VERTEX
  8
GSLAYER
 10
4154.4880301573
 20
3797.0502551941
  0
VERTEX
  8
GSLAYER
 10
4153.8719123771
 20
3796.9843103247
  0
VERTEX
  8
GSLAYER
 10
4153.8342868638
 20
3796.9843103247
  0
VERTEX
  8
GSLAYER
 10
4153.8342868638
 20
3802.2598998717
  0
SEQEND
  0
POLYLINE
  8
GSLAYER
 70
128
 66
1
  0
VERTEX
  8
GSLAYER
 10
4153.2699041644
 20
3802.2598998717
  0
VERTEX
  8
GSLAYER
 10
4153.2699041644
 20
3796.9843103247
  0
VERTEX
  8
GSLAYER
 10
4153.2322786511
 20
3796.9843103247
  0
VERTEX
  8
GSLAYER
 10
4152.6232156546
 20
3797.0502551941
  0
VERTEX
  8
GSLAYER
 10
4152.0188558473
 20
3797.1905379161
  0
VERTEX
  8
GSLAYER
 10
4151.4191992292
 20
3797.4051584909
  0
VERTEX
  8
GSLAYER
 10
4150.8242458002
 20
3797.6941169183
  0
VERTEX
  8
GSLAYER
 10
4150.2034248308
 20
3798.1113680916
  0
VERTEX
  8
GSLAYER
 10
4149.657854888
 20
3798.5957631318
  0
VERTEX
  8
GSLAYER
 10
4149.1875359718
 20
3799.147302039
  0
VERTEX
  8
GSLAYER
 10
4148.7924680822
 20
3799.7659848131
  0
VERTEX
  8
GSLAYER
 10
4148.5091009352
 20
3800.3654836253
  0
VERTEX
  8
GSLAYER
 10
4148.2986332202
 20
3800.9745744185
  0
VERTEX
  8
GSLAYER
 10
4148.1610649372
 20
3801.5932571926
  0
VERTEX
  8
GSLAYER
 10
4148.0963960863
 20
3802.2215319478
  0
VERTEX
  8
GSLAYER
 10
4148.0963960863
 20
3802.2598998717
  0
VERTEX
  8
GSLAYER
 10
4153.2699041644
 20
3802.2598998717
  0
SEQEND
  0
POLYLINE
  8
GSLAYER
 70
128
 66
1
  0
VERTEX
  8
GSLAYER
 10
4153.8342868638
 20
3802.8354187314
  0
VERTEX
  8
GSLAYER
 10
4153.8342868638
 20
3808.1110082784
  0
VERTEX
  8
GSLAYER
 10
4153.8719123771
 20
3808.1110082784
  0
VERTEX
  8
GSLAYER
 10
4154.4809753736
 20
3808.0450634091
  0
VERTEX
  8
GSLAYER
 10
4155.0853351809
 20
3807.904780687
  0
VERTEX
  8
GSLAYER
 10
4155.684991799
 20
3807.6901601123
  0
VERTEX
  8
GSLAYER
 10
4156.279945228
 20
3807.4012016848
  0
VERTEX
  8
GSLAYER
 10
4156.9007661974
 20
3806.9839505116
  0
VERTEX
  8
GSLAYER
 10
4157.4463361402
 20
3806.4995554713
  0
VERTEX
  8
GSLAYER
 10
4157.9166550564
 20
3805.9480165642
  0
VERTEX
  8
GSLAYER
 10
4158.311722946
 20
3805.32933379
  0
VERTEX
  8
GSLAYER
 10
4158.595090093
 20
3804.7298349778
  0
VERTEX
  8
GSLAYER
 10
4158.805557808
 20
3804.1207441847
  0
VERTEX
  8
GSLAYER
 10
4158.9431260909
 20
3803.5020614105
  0
VERTEX
  8
GSLAYER
 10
4159.0077949419
 20
3802.8737866554
  0
VERTEX
  8
GSLAYER
 10
4159.0077949419
 20
3802.8354187314
  0
VERTEX
  8
GSLAYER
 10
4153.8342868638
 20
3802.8354187314
  0
SEQEND
  0
POLYLINE
  8
GSLAYER
 70
128
 66
1
  0
VERTEX
  8
GSLAYER
 10
4153.2699041644
 20
3802.8354187314
  0
VERTEX
  8
GSLAYER
 10
4148.0963960863
 20
3802.8354187314
  0
VERTEX
  8
GSLAYER
 10
4148.0963960863
 20
3802.8737866554
  0
VERTEX
  8
GSLAYER
 10
4148.1610649372
 20
3803.4948674248
  0
VERTEX
  8
GSLAYER
 10
4148.2986332202
 20
3804.1111522037
  0
VERTEX
  8
GSLAYER
 10
4148.5091009352
 20
3804.7226409921
  0
VERTEX
  8
GSLAYER
 10
4148.7924680822
 20
3805.32933379
  0
VERTEX
  8
GSLAYER
 10
4149.2016455393
 20
3805.9624045356
  0
VERTEX
  8
GSLAYER
 10
4149.6766676447
 20
3806.5187394333
  0
VERTEX
  8
GSLAYER
 10
4150.2175343983
 20
3806.9983384831
  0
VERTEX
  8
GSLAYER
 10
4150.8242458002
 20
3807.4012016848
  0
VERTEX
  8
GSLAYER
 10
4151.4121444454
 20
3807.6901601123
  0
VERTEX
  8
GSLAYER
 10
4152.009449469
 20
3807.904780687
  0
VERTEX
  8
GSLAYER
 10
4152.6161608709
 20
3808.0450634091
  0
VERTEX
  8
GSLAYER
 10
4153.2322786511
 20
3808.1110082784
  0
VERTEX
  8
GSLAYER
 10
4153.2699041644
 20
3808.1110082784
  0
VERTEX
  8
GSLAYER
 10
4153.2699041644
 20
3802.8354187314
  0
SEQEND
  0
POLYLINE
  8
GSLAYER
 70
128
 66
1
  0
VERTEX
  8
GSLAYER
 10
4058.7023571091
 20
3788.0872150644
  0
VERTEX
  8
GSLAYER
 10
4057.9533742351
 20
3788.0380561618
  0
VERTEX
  8
GSLAYER
 10
4057.2114461448
 20
3787.890579454
  0
VERTEX
  8
GSLAYER
 10
4056.4765728382
 20
3787.644784941
  0
VERTEX
  8
GSLAYER
 10
4055.7487543154
 20
3787.3006726229
  0
VERTEX
  8
GSLAYER
 10
4055.0656160897
 20
3786.8570435019
  0
VERTEX
  8
GSLAYER
 10
4054.4647836742
 20
3786.3318825424
  0
VERTEX
  8
GSLAYER
 10
4053.9462570691
 20
3785.7251897445
  0
VERTEX
  8
GSLAYER
 10
4053.5100362744
 20
3785.0369651081
  0
VERTEX
  8
GSLAYER
 10
4053.3236724038
 20
3784.6694723363
  0
VERTEX
  8
GSLAYER
 10
4053.1596486818
 20
3784.2959845763
  0
VERTEX
  8
GSLAYER
 10
4053.0179651083
 20
3783.9165018282
  0
VERTEX
  8
GSLAYER
 10
4052.8986216833
 20
3783.531024092
  0
VERTEX
  8
GSLAYER
 10
4052.8039700014
 20
3783.1407503653
  0
VERTEX
  8
GSLAYER
 10
4052.7363616572
 20
3782.7468796457
  0
VERTEX
  8
GSLAYER
 10
4052.6957966507
 20
3782.3494119332
  0
VERTEX
  8
GSLAYER
 10
4052.6822749819
 20
3781.9483472279
  0
VERTEX
  8
GSLAYER
 10
4052.7328342653
 20
3781.1845857412
  0
VERTEX
  8
GSLAYER
 10
4052.8845121158
 20
3780.4280182402
  0
VERTEX
  8
GSLAYER
 10
4053.1373085333
 20
3779.678644725
  0
VERTEX
  8
GSLAYER
 10
4053.4912235177
 20
3778.9364651956
  0
VERTEX
  8
GSLAYER
 10
4053.94155388
 20
3778.2326535901
  0
VERTEX
  8
GSLAYER
 10
4054.4647836742
 20
3777.6175678088
  0
VERTEX
  8
GSLAYER
 10
4055.0609129005
 20
3777.0912078518
  0
VERTEX
  8
GSLAYER
 10
4055.7299415588
 20
3776.6535737189
  0
VERTEX
  8
GSLAYER
 10
4056.0885597324
 20
3776.47132608
  0
VERTEX
  8
GSLAYER
 10
4056.4495295006
 20
3776.3082624031
  0
VERTEX
  8
GSLAYER
 10
4056.8128508633
 20
3776.1643826882
  0
VERTEX
  8
GSLAYER
 10
4057.1785238207
 20
3776.0396869352
  0
VERTEX
  8
GSLAYER
 10
4057.5488999672
 20
3775.9389711348
  0
VERTEX
  8
GSLAYER
 10
4057.9263308974
 20
3775.8670312773
  0
VERTEX
  8
GSLAYER
 10
4058.3108166114
 20
3775.8238673628
  0
VERTEX
  8
GSLAYER
 10
4058.7023571091
 20
3775.8094793914
  0
VERTEX
  8
GSLAYER
 10
4059.0944855055
 20
3775.8238673628
  0
VERTEX
  8
GSLAYER
 10
4059.4807349154
 20
3775.8670312773
  0
VERTEX
  8
GSLAYER
 10
4059.8611053389
 20
3775.9389711348
  0
VERTEX
  8
GSLAYER
 10
4060.2355967759
 20
3776.0396869352
  0
VERTEX
  8
GSLAYER
 10
4060.6053850238
 20
3776.1643826882
  0
VERTEX
  8
GSLAYER
 10
4060.9716458797
 20
3776.3082624031
  0
VERTEX
  8
GSLAYER
 10
4061.3343793439
 20
3776.47132608
  0
VERTEX
  8
GSLAYER
 10
4061.6935854161
 20
3776.6535737189
  0
VERTEX
  8
GSLAYER
 10
4062.3614382771
 20
3777.0912078518
  0
VERTEX
  8
GSLAYER
 10
4062.9540401115
 20
3777.6175678088
  0
VERTEX
  8
GSLAYER
 10
4063.4713909193
 20
3778.2326535901
  0
VERTEX
  8
GSLAYER
 10
4063.9134907005
 20
3778.9364651956
  0
VERTEX
  8
GSLAYER
 10
4064.267405685
 20
3779.678644725
  0
VERTEX
  8
GSLAYER
 10
4064.5202021024
 20
3780.4280182402
  0
VERTEX
  8
GSLAYER
 10
4064.6718799529
 20
3781.1845857412
  0
VERTEX
  8
GSLAYER
 10
4064.7224392364
 20
3781.9483472279
  0
VERTEX
  8
GSLAYER
 10
4064.6718799529
 20
3782.7384866623
  0
VERTEX
  8
GSLAYER
 10
4064.5202021024
 20
3783.5166361205
  0
VERTEX
  8
GSLAYER
 10
4064.267405685
 20
3784.2827956024
  0
VERTEX
  8
GSLAYER
 10
4063.9134907005
 20
3785.0369651081
  0
VERTEX
  8
GSLAYER
 10
4063.6977318977
 20
3785.3918684049
  0
VERTEX
  8
GSLAYER
 10
4063.4643361356
 20
3785.7275877398
  0
VERTEX
  8
GSLAYER
 10
4063.213303414
 20
3786.0441231126
  0
VERTEX
  8
GSLAYER
 10
4062.9446337332
 20
3786.3414745234
  0
VERTEX
  8
GSLAYER
 10
4062.6571512956
 20
3786.617243977
  0
VERTEX
  8
GSLAYER
 10
4062.3496803042
 20
3786.8690334781
  0
VERTEX
  8
GSLAYER
 10
4062.0222207588
 20
3787.0968430267
  0
VERTEX
  8
GSLAYER
 10
4061.6747726594
 20
3787.3006726229
  0
VERTEX
  8
GSLAYER
 10
4060.9316687719
 20
3787.644784941
  0
VERTEX
  8
GSLAYER
 10
4060.1885648843
 20
3787.890579454
  0
VERTEX
  8
GSLAYER
 10
4059.4454609967
 20
3788.0380561618
  0
VERTEX
  8
GSLAYER
 10
4058.7023571091
 20
3788.0872150644
  0
SEQEND
  0
POLYLINE
  8
GSLAYER
 70
128
 66
1
  0
VERTEX
  8
GSLAYER
 10
4058.9845484588
 20
3781.660587798
  0
VERTEX
  8
GSLAYER
 10
4064.1580565369
 20
3781.660587798
  0
VERTEX
  8
GSLAYER
 10
4064.1580565369
 20
3781.6222198741
  0
VERTEX
  8
GSLAYER
 10
4064.093387686
 20
3781.0011391047
  0
VERTEX
  8
GSLAYER
 10
4063.955819403
 20
3780.3848543258
  0
VERTEX
  8
GSLAYER
 10
4063.745351688
 20
3779.7733655374
  0
VERTEX
  8
GSLAYER
 10
4063.461984541
 20
3779.1666727395
  0
VERTEX
  8
GSLAYER
 10
4063.0528070839
 20
3778.5336019938
  0
VERTEX
  8
GSLAYER
 10
4062.5777849785
 20
3777.9772670961
  0
VERTEX
  8
GSLAYER
 10
4062.0369182249
 20
3777.4976680464
  0
VERTEX
  8
GSLAYER
 10
4061.430206823
 20
3777.0948048446
  0
VERTEX
  8
GSLAYER
 10
4060.8423081778
 20
3776.8058464172
  0
VERTEX
  8
GSLAYER
 10
4060.2450031542
 20
3776.5912258424
  0
VERTEX
  8
GSLAYER
 10
4059.6382917523
 20
3776.4509431204
  0
VERTEX
  8
GSLAYER
 10
4059.0221739721
 20
3776.384998251
  0
VERTEX
  8
GSLAYER
 10
4058.9845484588
 20
3776.384998251
  0
VERTEX
  8
GSLAYER
 10
4058.9845484588
 20
3781.660587798
  0
SEQEND
  0
POLYLINE
  8
GSLAYER
 70
128
 66
1
  0
VERTEX
  8
GSLAYER
 10
4058.4201657594
 20
3781.660587798
  0
VERTEX
  8
GSLAYER
 10
4058.4201657594
 20
3776.384998251
  0
VERTEX
  8
GSLAYER
 10
4058.3825402461
 20
3776.384998251
  0
VERTEX
  8
GSLAYER
 10
4057.7734772496
 20
3776.4509431204
  0
VERTEX
  8
GSLAYER
 10
4057.1691174423
 20
3776.5912258424
  0
VERTEX
  8
GSLAYER
 10
4056.5694608242
 20
3776.8058464172
  0
VERTEX
  8
GSLAYER
 10
4055.9745073952
 20
3777.0948048446
  0
VERTEX
  8
GSLAYER
 10
4055.3536864258
 20
3777.5120560179
  0
VERTEX
  8
GSLAYER
 10
4054.808116483
 20
3777.9964510581
  0
VERTEX
  8
GSLAYER
 10
4054.3377975669
 20
3778.5479899653
  0
VERTEX
  8
GSLAYER
 10
4053.9427296773
 20
3779.1666727395
  0
VERTEX
  8
GSLAYER
 10
4053.6593625302
 20
3779.7661715516
  0
VERTEX
  8
GSLAYER
 10
4053.4488948153
 20
3780.3752623448
  0
VERTEX
  8
GSLAYER
 10
4053.3113265323
 20
3780.9939451189
  0
VERTEX
  8
GSLAYER
 10
4053.2466576813
 20
3781.6222198741
  0
VERTEX
  8
GSLAYER
 10
4053.2466576813
 20
3781.660587798
  0
VERTEX
  8
GSLAYER
 10
4058.4201657594
 20
3781.660587798
  0
SEQEND
  0
POLYLINE
  8
GSLAYER
 70
128
 66
1
  0
VERTEX
  8
GSLAYER
 10
4058.9845484588
 20
3782.2361066577
  0
VERTEX
  8
GSLAYER
 10
4058.9845484588
 20
3787.5116962047
  0
VERTEX
  8
GSLAYER
 10
4059.0221739721
 20
3787.5116962047
  0
VERTEX
  8
GSLAYER
 10
4059.6312369686
 20
3787.4457513354
  0
VERTEX
  8
GSLAYER
 10
4060.2355967759
 20
3787.3054686134
  0
VERTEX
  8
GSLAYER
 10
4060.835253394
 20
3787.0908480386
  0
VERTEX
  8
GSLAYER
 10
4061.430206823
 20
3786.8018896111
  0
VERTEX
  8
GSLAYER
 10
4062.0510277924
 20
3786.3846384379
  0
VERTEX
  8
GSLAYER
 10
4062.5965977352
 20
3785.9002433977
  0
VERTEX
  8
GSLAYER
 10
4063.0669166514
 20
3785.3487044905
  0
VERTEX
  8
GSLAYER
 10
4063.461984541
 20
3784.7300217163
  0
VERTEX
  8
GSLAYER
 10
4063.745351688
 20
3784.1305229042
  0
VERTEX
  8
GSLAYER
 10
4063.955819403
 20
3783.521432111
  0
VERTEX
  8
GSLAYER
 10
4064.093387686
 20
3782.9027493368
  0
VERTEX
  8
GSLAYER
 10
4064.1580565369
 20
3782.2744745817
  0
VERTEX
  8
GSLAYER
 10
4064.1580565369
 20
3782.2361066577
  0
VERTEX
  8
GSLAYER
 10
4058.9845484588
 20
3782.2361066577
  0
SEQEND
  0
POLYLINE
  8
GSLAYER
 70
128
 66
1
  0
VERTEX
  8
GSLAYER
 10
4058.4201657594
 20
3782.2361066577
  0
VERTEX
  8
GSLAYER
 10
4053.2466576813
 20
3782.2361066577
  0
VERTEX
  8
GSLAYER
 10
4053.2466576813
 20
3782.2744745817
  0
VERTEX
  8
GSLAYER
 10
4053.3113265323
 20
3782.8955553511
  0
VERTEX
  8
GSLAYER
 10
4053.4488948153
 20
3783.51184013
  0
VERTEX
  8
GSLAYER
 10
4053.6593625302
 20
3784.1233289184
  0
VERTEX
  8
GSLAYER
 10
4053.9427296773
 20
3784.7300217163
  0
VERTEX
  8
GSLAYER
 10
4054.3519071343
 20
3785.363092462
  0
VERTEX
  8
GSLAYER
 10
4054.8269292397
 20
3785.9194273596
  0
VERTEX
  8
GSLAYER
 10
4055.3677959933
 20
3786.3990264094
  0
VERTEX
  8
GSLAYER
 10
4055.9745073952
 20
3786.8018896111
  0
VERTEX
  8
GSLAYER
 10
4056.5624060404
 20
3787.0908480386
  0
VERTEX
  8
GSLAYER
 10
4057.159711064
 20
3787.3054686134
  0
VERTEX
  8
GSLAYER
 10
4057.7664224659
 20
3787.4457513354
  0
VERTEX
  8
GSLAYER
 10
4058.3825402461
 20
3787.5116962047
  0
VERTEX
  8
GSLAYER
 10
4058.4201657594
 20
3787.5116962047
  0
VERTEX
  8
GSLAYER
 10
4058.4201657594
 20
3782.2361066577
  0
SEQEND
  0
POLYLINE
  8
GSLAYER
 70
128
 66
1
  0
VERTEX
  8
GSLAYER
 10
4121.5787704382
 20
3975.6637322917
  0
VERTEX
  8
GSLAYER
 10
4120.8297875642
 20
3975.6145733891
  0
VERTEX
  8
GSLAYER
 10
4120.0878594739
 20
3975.4670966813
  0
VERTEX
  8
GSLAYER
 10
4119.3529861673
 20
3975.2213021683
  0
VERTEX
  8
GSLAYER
 10
4118.6251676445
 20
3974.8771898502
  0
VERTEX
  8
GSLAYER
 10
4117.9420294188
 20
3974.4335607292
  0
VERTEX
  8
GSLAYER
 10
4117.3411970033
 20
3973.9083997697
  0
VERTEX
  8
GSLAYER
 10
4116.8226703982
 20
3973.3017069718
  0
VERTEX
  8
GSLAYER
 10
4116.3864496035
 20
3972.6134823354
  0
VERTEX
  8
GSLAYER
 10
4116.2000857329
 20
3972.2459895636
  0
VERTEX
  8
GSLAYER
 10
4116.0360620109
 20
3971.8725018036
  0
VERTEX
  8
GSLAYER
 10
4115.8943784374
 20
3971.4930190555
  0
VERTEX
  8
GSLAYER
 10
4115.7750350124
 20
3971.1075413193
  0
VERTEX
  8
GSLAYER
 10
4115.6803833305
 20
3970.7172675926
  0
VERTEX
  8
GSLAYER
 10
4115.6127749863
 20
3970.323396873
  0
VERTEX
  8
GSLAYER
 10
4115.5722099798
 20
3969.9259291605
  0
VERTEX
  8
GSLAYER
 10
4115.558688311
 20
3969.5248644552
  0
VERTEX
  8
GSLAYER
 10
4115.6092475945
 20
3968.7611029685
  0
VERTEX
  8
GSLAYER
 10
4115.7609254449
 20
3968.0045354675
  0
VERTEX
  8
GSLAYER
 10
4116.0137218624
 20
3967.2551619523
  0
VERTEX
  8
GSLAYER
 10
4116.3676368468
 20
3966.5129824229
  0
VERTEX
  8
GSLAYER
 10
4116.8179672091
 20
3965.8091708174
  0
VERTEX
  8
GSLAYER
 10
4117.3411970033
 20
3965.1940850361
  0
VERTEX
  8
GSLAYER
 10
4117.9373262296
 20
3964.6677250791
  0
VERTEX
  8
GSLAYER
 10
4118.6063548879
 20
3964.2300909462
  0
VERTEX
  8
GSLAYER
 10
4118.9649730615
 20
3964.0478433073
  0
VERTEX
  8
GSLAYER
 10
4119.3259428297
 20
3963.8847796304
  0
VERTEX
  8
GSLAYER
 10
4119.6892641924
 20
3963.7408999155
  0
VERTEX
  8
GSLAYER
 10
4120.0549371498
 20
3963.6162041625
  0
VERTEX
  8
GSLAYER
 10
4120.4253132963
 20
3963.5154883621
  0
VERTEX
  8
GSLAYER
 10
4120.8027442265
 20
3963.4435485046
  0
VERTEX
  8
GSLAYER
 10
4121.1872299405
 20
3963.4003845901
  0
VERTEX
  8
GSLAYER
 10
4121.5787704382
 20
3963.3859966187
  0
VERTEX
  8
GSLAYER
 10
4121.9708988346
 20
3963.4003845901
  0
VERTEX
  8
GSLAYER
 10
4122.3571482445
 20
3963.4435485046
  0
VERTEX
  8
GSLAYER
 10
4122.737518668
 20
3963.5154883621
  0
VERTEX
  8
GSLAYER
 10
4123.112010105
 20
3963.6162041625
  0
VERTEX
  8
GSLAYER
 10
4123.4817983529
 20
3963.7408999155
  0
VERTEX
  8
GSLAYER
 10
4123.8480592089
 20
3963.8847796304
  0
VERTEX
  8
GSLAYER
 10
4124.210792673
 20
3964.0478433073
  0
VERTEX
  8
GSLAYER
 10
4124.5699987452
 20
3964.2300909462
  0
VERTEX
  8
GSLAYER
 10
4125.2378516062
 20
3964.6677250791
  0
VERTEX
  8
GSLAYER
 10
4125.8304534406
 20
3965.1940850361
  0
VERTEX
  8
GSLAYER
 10
4126.3478042484
 20
3965.8091708174
  0
VERTEX
  8
GSLAYER
 10
4126.7899040296
 20
3966.5129824229
  0
VERTEX
  8
GSLAYER
 10
4127.1438190141
 20
3967.2551619523
  0
VERTEX
  8
GSLAYER
 10
4127.3966154315
 20
3968.0045354675
  0
VERTEX
  8
GSLAYER
 10
4127.548293282
 20
3968.7611029685
  0
VERTEX
  8
GSLAYER
 10
4127.5988525655
 20
3969.5248644552
  0
VERTEX
  8
GSLAYER
 10
4127.548293282
 20
3970.3150038896
  0
VERTEX
  8
GSLAYER
 10
4127.3966154315
 20
3971.0931533478
  0
VERTEX
  8
GSLAYER
 10
4127.1438190141
 20
3971.8593128297
  0
VERTEX
  8
GSLAYER
 10
4126.7899040296
 20
3972.6134823354
  0
VERTEX
  8
GSLAYER
 10
4126.5741452268
 20
3972.9683856322
  0
VERTEX
  8
GSLAYER
 10
4126.3407494647
 20
3973.3041049671
  0
VERTEX
  8
GSLAYER
 10
4126.0897167432
 20
3973.6206403399
  0
VERTEX
  8
GSLAYER
 10
4125.8210470623
 20
3973.9179917507
  0
VERTEX
  8
GSLAYER
 10
4125.5335646248
 20
3974.1937612043
  0
VERTEX
  8
GSLAYER
 10
4125.2260936333
 20
3974.4455507054
  0
VERTEX
  8
GSLAYER
 10
4124.8986340879
 20
3974.673360254
  0
VERTEX
  8
GSLAYER
 10
4124.5511859886
 20
3974.8771898502
  0
VERTEX
  8
GSLAYER
 10
4123.808082101
 20
3975.2213021683
  0
VERTEX
  8
GSLAYER
 10
4123.0649782134
 20
3975.4670966813
  0
VERTEX
  8
GSLAYER
 10
4122.3218743258
 20
3975.6145733891
  0
VERTEX
  8
GSLAYER
 10
4121.5787704382
 20
3975.6637322917
  0
SEQEND
  0
POLYLINE
  8
GSLAYER
 70
128
 66
1
  0
VERTEX
  8
GSLAYER
 10
4121.8609617879
 20
3969.2371050254
  0
VERTEX
  8
GSLAYER
 10
4127.0344698661
 20
3969.2371050254
  0
VERTEX
  8
GSLAYER
 10
4127.0344698661
 20
3969.1987371014
  0
VERTEX
  8
GSLAYER
 10
4126.9698010151
 20
3968.577656332
  0
VERTEX
  8
GSLAYER
 10
4126.8322327321
 20
3967.9613715531
  0
VERTEX
  8
GSLAYER
 10
4126.6217650171
 20
3967.3498827647
  0
VERTEX
  8
GSLAYER
 10
4126.3383978701
 20
3966.7431899668
  0
VERTEX
  8
GSLAYER
 10
4125.929220413
 20
3966.1101192211
  0
VERTEX
  8
GSLAYER
 10
4125.4541983076
 20
3965.5537843234
  0
VERTEX
  8
GSLAYER
 10
4124.913331554
 20
3965.0741852737
  0
VERTEX
  8
GSLAYER
 10
4124.3066201521
 20
3964.6713220719
  0
VERTEX
  8
GSLAYER
 10
4123.7187215069
 20
3964.3823636445
  0
VERTEX
  8
GSLAYER
 10
4123.1214164833
 20
3964.1677430697
  0
VERTEX
  8
GSLAYER
 10
4122.5147050814
 20
3964.0274603477
  0
VERTEX
  8
GSLAYER
 10
4121.8985873012
 20
3963.9615154783
  0
VERTEX
  8
GSLAYER
 10
4121.8609617879
 20
3963.9615154783
  0
VERTEX
  8
GSLAYER
 10
4121.8609617879
 20
3969.2371050254
  0
SEQEND
  0
POLYLINE
  8
GSLAYER
 70
128
 66
1
  0
VERTEX
  8
GSLAYER
 10
4121.2965790885
 20
3969.2371050254
  0
VERTEX
  8
GSLAYER
 10
4121.2965790885
 20
3963.9615154783
  0
VERTEX
  8
GSLAYER
 10
4121.2589535752
 20
3963.9615154783
  0
VERTEX
  8
GSLAYER
 10
4120.6498905787
 20
3964.0274603477
  0
VERTEX
  8
GSLAYER
 10
4120.0455307714
 20
3964.1677430697
  0
VERTEX
  8
GSLAYER
 10
4119.4458741533
 20
3964.3823636445
  0
VERTEX
  8
GSLAYER
 10
4118.8509207243
 20
3964.6713220719
  0
VERTEX
  8
GSLAYER
 10
4118.2300997549
 20
3965.0885732452
  0
VERTEX
  8
GSLAYER
 10
4117.6845298122
 20
3965.5729682854
  0
VERTEX
  8
GSLAYER
 10
4117.214210896
 20
3966.1245071926
  0
VERTEX
  8
GSLAYER
 10
4116.8191430064
 20
3966.7431899668
  0
VERTEX
  8
GSLAYER
 10
4116.5357758594
 20
3967.3426887789
  0
VERTEX
  8
GSLAYER
 10
4116.3253081444
 20
3967.9517795721
  0
VERTEX
  8
GSLAYER
 10
4116.1877398614
 20
3968.5704623462
  0
VERTEX
  8
GSLAYER
 10
4116.1230710104
 20
3969.1987371014
  0
VERTEX
  8
GSLAYER
 10
4116.1230710104
 20
3969.2371050254
  0
VERTEX
  8
GSLAYER
 10
4121.2965790885
 20
3969.2371050254
  0
SEQEND
  0
POLYLINE
  8
GSLAYER
 70
128
 66
1
  0
VERTEX
  8
GSLAYER
 10
4121.8609617879
 20
3969.812623885
  0
VERTEX
  8
GSLAYER
 10
4121.8609617879
 20
3975.088213432
  0
VERTEX
  8
GSLAYER
 10
4121.8985873012
 20
3975.088213432
  0
VERTEX
  8
GSLAYER
 10
4122.5076502977
 20
3975.0222685627
  0
VERTEX
  8
GSLAYER
 10
4123.112010105
 20
3974.8819858407
  0
VERTEX
  8
GSLAYER
 10
4123.7116667232
 20
3974.6673652659
  0
VERTEX
  8
GSLAYER
 10
4124.3066201521
 20
3974.3784068384
  0
VERTEX
  8
GSLAYER
 10
4124.9274411215
 20
3973.9611556652
  0
VERTEX
  8
GSLAYER
 10
4125.4730110643
 20
3973.476760625
  0
VERTEX
  8
GSLAYER
 10
4125.9433299805
 20
3972.9252217178
  0
VERTEX
  8
GSLAYER
 10
4126.3383978701
 20
3972.3065389436
  0
VERTEX
  8
GSLAYER
 10
4126.6217650171
 20
3971.7070401315
  0
VERTEX
  8
GSLAYER
 10
4126.8322327321
 20
3971.0979493383
  0
VERTEX
  8
GSLAYER
 10
4126.9698010151
 20
3970.4792665641
  0
VERTEX
  8
GSLAYER
 10
4127.0344698661
 20
3969.850991809
  0
VERTEX
  8
GSLAYER
 10
4127.0344698661
 20
3969.812623885
  0
VERTEX
  8
GSLAYER
 10
4121.8609617879
 20
3969.812623885
  0
SEQEND
  0
POLYLINE
  8
GSLAYER
 70
128
 66
1
  0
VERTEX
  8
GSLAYER
 10
4121.2965790885
 20
3969.812623885
  0
VERTEX
  8
GSLAYER
 10
4116.1230710104
 20
3969.812623885
  0
VERTEX
  8
GSLAYER
 10
4116.1230710104
 20
3969.850991809
  0
VERTEX
  8
GSLAYER
 10
4116.1877398614
 20
3970.4720725784
  0
VERTEX
  8
GSLAYER
 10
4116.3253081444
 20
3971.0883573573
  0
VERTEX
  8
GSLAYER
 10
4116.5357758594
 20
3971.6998461457
  0
VERTEX
  8
GSLAYER
 10
4116.8191430064
 20
3972.3065389436
  0
VERTEX
  8
GSLAYER
 10
4117.2283204635
 20
3972.9396096893
  0
VERTEX
  8
GSLAYER
 10
4117.7033425688
 20
3973.4959445869
  0
VERTEX
  8
GSLAYER
 10
4118.2442093224
 20
3973.9755436367
  0
VERTEX
  8
GSLAYER
 10
4118.8509207243
 20
3974.3784068384
  0
VERTEX
  8
GSLAYER
 10
4119.4388193696
 20
3974.6673652659
  0
VERTEX
  8
GSLAYER
 10
4120.0361243931
 20
3974.8819858407
  0
VERTEX
  8
GSLAYER
 10
4120.642835795
 20
3975.0222685627
  0
VERTEX
  8
GSLAYER
 10
4121.2589535752
 20
3975.088213432
  0
VERTEX
  8
GSLAYER
 10
4121.2965790885
 20
3975.088213432
  0
VERTEX
  8
GSLAYER
 10
4121.2965790885
 20
3969.812623885
  0
SEQEND
  0
POLYLINE
  8
GSLAYER
 70
128
 66
1
  0
VERTEX
  8
GSLAYER
 10
4295.9604827244
 20
3406.7271031307
  0
VERTEX
  8
GSLAYER
 10
4295.2114998504
 20
3406.6779442281
  0
VERTEX
  8
GSLAYER
 10
4294.4695717601
 20
3406.5304675203
  0
VERTEX
  8
GSLAYER
 10
4293.7346984535
 20
3406.2846730073
  0
VERTEX
  8
GSLAYER
 10
4293.0068799307
 20
3405.9405606891
  0
VERTEX
  8
GSLAYER
 10
4292.3237417049
 20
3405.4969315681
  0
VERTEX
  8
GSLAYER
 10
4291.7229092895
 20
3404.9717706086
  0
VERTEX
  8
GSLAYER
 10
4291.2043826844
 20
3404.3650778107
  0
VERTEX
  8
GSLAYER
 10
4290.7681618896
 20
3403.6768531744
  0
VERTEX
  8
GSLAYER
 10
4290.5817980191
 20
3403.3093604025
  0
VERTEX
  8
GSLAYER
 10
4290.4177742971
 20
3402.9358726425
  0
VERTEX
  8
GSLAYER
 10
4290.2760907236
 20
3402.5563898945
  0
VERTEX
  8
GSLAYER
 10
4290.1567472986
 20
3402.1709121582
  0
VERTEX
  8
GSLAYER
 10
4290.0620956167
 20
3401.7806384315
  0
VERTEX
  8
GSLAYER
 10
4289.9944872725
 20
3401.3867677119
  0
VERTEX
  8
GSLAYER
 10
4289.953922266
 20
3400.9892999995
  0
VERTEX
  8
GSLAYER
 10
4289.9404005971
 20
3400.5882352941
  0
VERTEX
  8
GSLAYER
 10
4289.9909598806
 20
3399.8244738074
  0
VERTEX
  8
GSLAYER
 10
4290.1426377311
 20
3399.0679063065
  0
VERTEX
  8
GSLAYER
 10
4290.3954341486
 20
3398.3185327913
  0
VERTEX
  8
GSLAYER
 10
4290.749349133
 20
3397.5763532618
  0
VERTEX
  8
GSLAYER
 10
4291.1996794952
 20
3396.8725416564
  0
VERTEX
  8
GSLAYER
 10
4291.7229092895
 20
3396.2574558751
  0
VERTEX
  8
GSLAYER
 10
4292.3190385158
 20
3395.731095918
  0
VERTEX
  8
GSLAYER
 10
4292.9880671741
 20
3395.2934617851
  0
VERTEX
  8
GSLAYER
 10
4293.3466853477
 20
3395.1112141462
  0
VERTEX
  8
GSLAYER
 10
4293.7076551158
 20
3394.9481504693
  0
VERTEX
  8
GSLAYER
 10
4294.0709764786
 20
3394.8042707544
  0
VERTEX
  8
GSLAYER
 10
4294.4366494359
 20
3394.6795750015
  0
VERTEX
  8
GSLAYER
 10
4294.8070255824
 20
3394.578859201
  0
VERTEX
  8
GSLAYER
 10
4295.1844565127
 20
3394.5069193436
  0
VERTEX
  8
GSLAYER
 10
4295.5689422267
 20
3394.4637554291
  0
VERTEX
  8
GSLAYER
 10
4295.9604827244
 20
3394.4493674576
  0
VERTEX
  8
GSLAYER
 10
4296.3526111208
 20
3394.4637554291
  0
VERTEX
  8
GSLAYER
 10
4296.7388605307
 20
3394.5069193436
  0
VERTEX
  8
GSLAYER
 10
4297.1192309542
 20
3394.578859201
  0
VERTEX
  8
GSLAYER
 10
4297.4937223912
 20
3394.6795750015
  0
VERTEX
  8
GSLAYER
 10
4297.863510639
 20
3394.8042707544
  0
VERTEX
  8
GSLAYER
 10
4298.229771495
 20
3394.9481504693
  0
VERTEX
  8
GSLAYER
 10
4298.5925049591
 20
3395.1112141462
  0
VERTEX
  8
GSLAYER
 10
4298.9517110314
 20
3395.2934617851
  0
VERTEX
  8
GSLAYER
 10
4299.6195638924
 20
3395.731095918
  0
VERTEX
  8
GSLAYER
 10
4300.2121657268
 20
3396.2574558751
  0
VERTEX
  8
GSLAYER
 10
4300.7295165346
 20
3396.8725416564
  0
VERTEX
  8
GSLAYER
 10
4301.1716163158
 20
3397.5763532618
  0
VERTEX
  8
GSLAYER
 10
4301.5255313002
 20
3398.3185327913
  0
VERTEX
  8
GSLAYER
 10
4301.7783277177
 20
3399.0679063065
  0
VERTEX
  8
GSLAYER
 10
4301.9300055682
 20
3399.8244738074
  0
VERTEX
  8
GSLAYER
 10
4301.9805648517
 20
3400.5882352941
  0
VERTEX
  8
GSLAYER
 10
4301.9300055682
 20
3401.3783747286
  0
VERTEX
  8
GSLAYER
 10
4301.7783277177
 20
3402.1565241867
  0
VERTEX
  8
GSLAYER
 10
4301.5255313002
 20
3402.9226836687
  0
VERTEX
  8
GSLAYER
 10
4301.1716163158
 20
3403.6768531744
  0
VERTEX
  8
GSLAYER
 10
4300.955857513
 20
3404.0317564712
  0
VERTEX
  8
GSLAYER
 10
4300.7224617508
 20
3404.367475806
  0
VERTEX
  8
GSLAYER
 10
4300.4714290293
 20
3404.6840111788
  0
VERTEX
  8
GSLAYER
 10
4300.2027593484
 20
3404.9813625896
  0
VERTEX
  8
GSLAYER
 10
4299.9152769109
 20
3405.2571320432
  0
VERTEX
  8
GSLAYER
 10
4299.6078059195
 20
3405.5089215443
  0
VERTEX
  8
GSLAYER
 10
4299.2803463741
 20
3405.736731093
  0
VERTEX
  8
GSLAYER
 10
4298.9328982747
 20
3405.9405606891
  0
VERTEX
  8
GSLAYER
 10
4298.1897943871
 20
3406.2846730073
  0
VERTEX
  8
GSLAYER
 10
4297.4466904996
 20
3406.5304675203
  0
VERTEX
  8
GSLAYER
 10
4296.703586612
 20
3406.6779442281
  0
VERTEX
  8
GSLAYER
 10
4295.9604827244
 20
3406.7271031307
  0
SEQEND
  0
POLYLINE
  8
GSLAYER
 70
128
 66
1
  0
VERTEX
  8
GSLAYER
 10
4296.2426740741
 20
3400.3004758643
  0
VERTEX
  8
GSLAYER
 10
4301.4161821522
 20
3400.3004758643
  0
VERTEX
  8
GSLAYER
 10
4301.4161821522
 20
3400.2621079403
  0
VERTEX
  8
GSLAYER
 10
4301.3515133012
 20
3399.6410271709
  0
VERTEX
  8
GSLAYER
 10
4301.2139450183
 20
3399.024742392
  0
VERTEX
  8
GSLAYER
 10
4301.0034773033
 20
3398.4132536036
  0
VERTEX
  8
GSLAYER
 10
4300.7201101563
 20
3397.8065608057
  0
VERTEX
  8
GSLAYER
 10
4300.3109326992
 20
3397.1734900601
  0
VERTEX
  8
GSLAYER
 10
4299.8359105938
 20
3396.6171551624
  0
VERTEX
  8
GSLAYER
 10
4299.2950438402
 20
3396.1375561126
  0
VERTEX
  8
GSLAYER
 10
4298.6883324383
 20
3395.7346929109
  0
VERTEX
  8
GSLAYER
 10
4298.1004337931
 20
3395.4457344834
  0
VERTEX
  8
GSLAYER
 10
4297.5031287695
 20
3395.2311139087
  0
VERTEX
  8
GSLAYER
 10
4296.8964173676
 20
3395.0908311866
  0
VERTEX
  8
GSLAYER
 10
4296.2802995874
 20
3395.0248863173
  0
VERTEX
  8
GSLAYER
 10
4296.2426740741
 20
3395.0248863173
  0
VERTEX
  8
GSLAYER
 10
4296.2426740741
 20
3400.3004758643
  0
SEQEND
  0
POLYLINE
  8
GSLAYER
 70
128
 66
1
  0
VERTEX
  8
GSLAYER
 10
4295.6782913747
 20
3400.3004758643
  0
VERTEX
  8
GSLAYER
 10
4295.6782913747
 20
3395.0248863173
  0
VERTEX
  8
GSLAYER
 10
4295.6406658614
 20
3395.0248863173
  0
VERTEX
  8
GSLAYER
 10
4295.0316028649
 20
3395.0908311866
  0
VERTEX
  8
GSLAYER
 10
4294.4272430576
 20
3395.2311139087
  0
VERTEX
  8
GSLAYER
 10
4293.8275864395
 20
3395.4457344834
  0
VERTEX
  8
GSLAYER
 10
4293.2326330105
 20
3395.7346929109
  0
VERTEX
  8
GSLAYER
 10
4292.6118120411
 20
3396.1519440841
  0
VERTEX
  8
GSLAYER
 10
4292.0662420983
 20
3396.6363391244
  0
VERTEX
  8
GSLAYER
 10
4291.5959231821
 20
3397.1878780315
  0
VERTEX
  8
GSLAYER
 10
4291.2008552925
 20
3397.8065608057
  0
VERTEX
  8
GSLAYER
 10
4290.9174881455
 20
3398.4060596179
  0
VERTEX
  8
GSLAYER
 10
4290.7070204305
 20
3399.015150411
  0
VERTEX
  8
GSLAYER
 10
4290.5694521475
 20
3399.6338331852
  0
VERTEX
  8
GSLAYER
 10
4290.5047832966
 20
3400.2621079403
  0
VERTEX
  8
GSLAYER
 10
4290.5047832966
 20
3400.3004758643
  0
VERTEX
  8
GSLAYER
 10
4295.6782913747
 20
3400.3004758643
  0
SEQEND
  0
POLYLINE
  8
GSLAYER
 70
128
 66
1
  0
VERTEX
  8
GSLAYER
 10
4296.2426740741
 20
3400.875994724
  0
VERTEX
  8
GSLAYER
 10
4296.2426740741
 20
3406.151584271
  0
VERTEX
  8
GSLAYER
 10
4296.2802995874
 20
3406.151584271
  0
VERTEX
  8
GSLAYER
 10
4296.8893625839
 20
3406.0856394016
  0
VERTEX
  8
GSLAYER
 10
4297.4937223912
 20
3405.9453566796
  0
VERTEX
  8
GSLAYER
 10
4298.0933790093
 20
3405.7307361048
  0
VERTEX
  8
GSLAYER
 10
4298.6883324383
 20
3405.4417776774
  0
VERTEX
  8
GSLAYER
 10
4299.3091534077
 20
3405.0245265041
  0
VERTEX
  8
GSLAYER
 10
4299.8547233505
 20
3404.5401314639
  0
VERTEX
  8
GSLAYER
 10
4300.3250422667
 20
3403.9885925567
  0
VERTEX
  8
GSLAYER
 10
4300.7201101563
 20
3403.3699097826
  0
VERTEX
  8
GSLAYER
 10
4301.0034773033
 20
3402.7704109704
  0
VERTEX
  8
GSLAYER
 10
4301.2139450183
 20
3402.1613201772
  0
VERTEX
  8
GSLAYER
 10
4301.3515133012
 20
3401.5426374031
  0
VERTEX
  8
GSLAYER
 10
4301.4161821522
 20
3400.9143626479
  0
VERTEX
  8
GSLAYER
 10
4301.4161821522
 20
3400.875994724
  0
VERTEX
  8
GSLAYER
 10
4296.2426740741
 20
3400.875994724
  0
SEQEND
  0
POLYLINE
  8
GSLAYER
 70
128
 66
1
  0
VERTEX
  8
GSLAYER
 10
4295.6782913747
 20
3400.875994724
  0
VERTEX
  8
GSLAYER
 10
4290.5047832966
 20
3400.875994724
  0
VERTEX
  8
GSLAYER
 10
4290.5047832966
 20
3400.9143626479
  0
VERTEX
  8
GSLAYER
 10
4290.5694521475
 20
3401.5354434173
  0
VERTEX
  8
GSLAYER
 10
4290.7070204305
 20
3402.1517281962
  0
VERTEX
  8
GSLAYER
 10
4290.9174881455
 20
3402.7632169846
  0
VERTEX
  8
GSLAYER
 10
4291.2008552925
 20
3403.3699097826
  0
VERTEX
  8
GSLAYER
 10
4291.6100327496
 20
3404.0029805282
  0
VERTEX
  8
GSLAYER
 10
4292.085054855
 20
3404.5593154259
  0
VERTEX
  8
GSLAYER
 10
4292.6259216086
 20
3405.0389144756
  0
VERTEX
  8
GSLAYER
 10
4293.2326330105
 20
3405.4417776774
  0
VERTEX
  8
GSLAYER
 10
4293.8205316557
 20
3405.7307361048
  0
VERTEX
  8
GSLAYER
 10
4294.4178366793
 20
3405.9453566796
  0
VERTEX
  8
GSLAYER
 10
4295.0245480812
 20
3406.0856394016
  0
VERTEX
  8
GSLAYER
 10
4295.6406658614
 20
3406.151584271
  0
VERTEX
  8
GSLAYER
 10
4295.6782913747
 20
3406.151584271
  0
VERTEX
  8
GSLAYER
 10
4295.6782913747
 20
3400.875994724
  0
SEQEND
  0
POLYLINE
  8
GSLAYER
 70
129
 66
1
  0
VERTEX
  8
GSLAYER
 10
3737.9620794233
 20
3689.3745421475
  0
VERTEX
  8
GSLAYER
 10
3739.2162631998
 20
3689.3745421475
  0
VERTEX
  8
GSLAYER
 10
3739.2162631998
 20
3695.577356524
  0
VERTEX
  8
GSLAYER
 10
3745.278151453
 20
3695.577356524
  0
VERTEX
  8
GSLAYER
 10
3745.278151453
 20
3696.8562873232
  0
VERTEX
  8
GSLAYER
 10
3739.2162631998
 20
3696.8562873232
  0
VERTEX
  8
GSLAYER
 10
3739.2162631998
 20
3703.0164706731
  0
VERTEX
  8
GSLAYER
 10
3737.9620794233
 20
3703.0164706731
  0
VERTEX
  8
GSLAYER
 10
3737.9620794233
 20
3696.8562873232
  0
VERTEX
  8
GSLAYER
 10
3731.9001911702
 20
3696.8562873232
  0
VERTEX
  8
GSLAYER
 10
3731.9001911702
 20
3695.577356524
  0
VERTEX
  8
GSLAYER
 10
3737.9620794233
 20
3695.577356524
  0
VERTEX
  8
GSLAYER
 10
3737.9620794233
 20
3689.3745421475
  0
SEQEND
  0
POLYLINE
  8
GSLAYER
 70
129
 66
1
  0
VERTEX
  8
GSLAYER
 10
3926.1904310375
 20
3620.6363867302
  0
VERTEX
  8
GSLAYER
 10
3927.444614814
 20
3620.6363867302
  0
VERTEX
  8
GSLAYER
 10
3927.444614814
 20
3626.8392011067
  0
VERTEX
  8
GSLAYER
 10
3933.5065030671
 20
3626.8392011067
  0
VERTEX
  8
GSLAYER
 10
3933.5065030671
 20
3628.118131906
  0
VERTEX
  8
GSLAYER
 10
3927.444614814
 20
3628.118131906
  0
VERTEX
  8
GSLAYER
 10
3927.444614814
 20
3634.2783152558
  0
VERTEX
  8
GSLAYER
 10
3926.1904310375
 20
3634.2783152558
  0
VERTEX
  8
GSLAYER
 10
3926.1904310375
 20
3628.118131906
  0
VERTEX
  8
GSLAYER
 10
3920.1285427844
 20
3628.118131906
  0
VERTEX
  8
GSLAYER
 10
3920.1285427844
 20
3626.8392011067
  0
VERTEX
  8
GSLAYER
 10
3926.1904310375
 20
3626.8392011067
  0
VERTEX
  8
GSLAYER
 10
3926.1904310375
 20
3620.6363867302
  0
SEQEND
  0
POLYLINE
  8
GSLAYER
 70
129
 66
1
  0
VERTEX
  8
GSLAYER
 10
4295.0476973
 20
3396.0639298446
  0
VERTEX
  8
GSLAYER
 10
4296.3018810765
 20
3396.0639298446
  0
VERTEX
  8
GSLAYER
 10
4296.3018810765
 20
3402.2667442211
  0
VERTEX
  8
GSLAYER
 10
4302.3637693297
 20
3402.2667442211
  0
VERTEX
  8
GSLAYER
 10
4302.3637693297
 20
3403.5456750203
  0
VERTEX
  8
GSLAYER
 10
4296.3018810765
 20
3403.5456750203
  0
VERTEX
  8
GSLAYER
 10
4296.3018810765
 20
3409.7058583702
  0
VERTEX
  8
GSLAYER
 10
4295.0476973
 20
3409.7058583702
  0
VERTEX
  8
GSLAYER
 10
4295.0476973
 20
3403.5456750203
  0
VERTEX
  8
GSLAYER
 10
4288.9858090469
 20
3403.5456750203
  0
VERTEX
  8
GSLAYER
 10
4288.9858090469
 20
3402.2667442211
  0
VERTEX
  8
GSLAYER
 10
4295.0476973
 20
3402.2667442211
  0
VERTEX
  8
GSLAYER
 10
4295.0476973
 20
3396.0639298446
  0
SEQEND
  0
POLYLINE
  8
GSLAYER
 70
129
 66
1
  0
VERTEX
  8
GSLAYER
 10
4120.381103358
 20
3964.3012842265
  0
VERTEX
  8
GSLAYER
 10
4121.6352871345
 20
3964.3012842265
  0
VERTEX
  8
GSLAYER
 10
4121.6352871345
 20
3970.504098603
  0
VERTEX
  8
GSLAYER
 10
4127.6971753877
 20
3970.504098603
  0
VERTEX
  8
GSLAYER
 10
4127.6971753877
 20
3971.7830294023
  0
VERTEX
  8
GSLAYER
 10
4121.6352871345
 20
3971.7830294023
  0
VERTEX
  8
GSLAYER
 10
4121.6352871345
 20
3977.9432127522
  0
VERTEX
  8
GSLAYER
 10
4120.381103358
 20
3977.9432127522
  0
VERTEX
  8
GSLAYER
 10
4120.381103358
 20
3971.7830294023
  0
VERTEX
  8
GSLAYER
 10
4114.3192151049
 20
3971.7830294023
  0
VERTEX
  8
GSLAYER
 10
4114.3192151049
 20
3970.504098603
  0
VERTEX
  8
GSLAYER
 10
4120.381103358
 20
3970.504098603
  0
VERTEX
  8
GSLAYER
 10
4120.381103358
 20
3964.3012842265
  0
SEQEND
  0
POLYLINE
  8
GSLAYER
 70
128
 66
1
  0
VERTEX
  8
GSLAYER
 10
3478.4333298431
 20
2830.7648807789
  0
VERTEX
  8
GSLAYER
 10
4385.1914778106
 20
2830.7648807789
  0
SEQEND
  0
POLYLINE
  8
GSLAYER
 70
128
 66
1
  0
VERTEX
  8
GSLAYER
 10
3478.4333298431
 20
3982.4164869119
  0
VERTEX
  8
GSLAYER
 10
4385.1914778106
 20
3982.4164869119
  0
SEQEND
  0
POLYLINE
  8
GSLAYER
 70
128
 66
1
  0
VERTEX
  8
GSLAYER
 10
3478.4333298431
 20
2830.7648807789
  0
VERTEX
  8
GSLAYER
 10
3478.4333298431
 20
3982.4164869119
  0
SEQEND
  0
POLYLINE
  8
GSLAYER
 70
128
 66
1
  0
VERTEX
  8
GSLAYER
 10
4385.1914778106
 20
2830.7648807789
  0
VERTEX
  8
GSLAYER
 10
4385.1914778106
 20
3982.4164869119
  0
SEQEND
  0
ENDSEC
  0
EOF
